Oops, an error
Loading. Please wait.

Sweet Sour Bass Tab

2,774 views 27 this week
1 commentread comment
1 2 3 4 5
please rate
add to favorites
launch autoscroll
font size
0
reset
guitar tuner
Autoscroll
slow
fast
+/-
esc
set tempo
stop
Help us to improve Ultimate-Guitar.com Take our survey!
×
Author
Artist: Band of Skulls

Album: Sweet Sour



All tabs by Pedro Zappa
-----------------------------------------------------------------------------
-----------------------------------------------------------------------------

1. Sweet Sour


Intro

G||--------------------|--------------------||   x4
D||--------------------|--------------------||
A||--------------------|--------------------||
D||-0----0-------------|-0----0-------------||
    i    i    i    i     i    i    i    i

Verse 1

G||--------------------|--------------------||   x4
D||--------------------|--------------------||
A||--------------------|--------------------||
D||-0----0-------------|-0----0-------------||
    i    i    i    i     i    i    i    i
G||--------------------|--------------------||   x2
D||--------------------|--------------------||
A||--------------------|--------------------||
D||-5----5-------------|-5----5-------------||
    i    i    i    i     i    i    i    i
G||--------------------|--------------------||   x2 
D||--------------------|--------------------||
A||--------------------|--------------------||
D||-0----0-------------|-0----0-------------||
    i    i    i    i     i    i    i    i

G||--------------------|--------------------|
D||--------------------|--------------------|
A||--------------------|--------------------|
D||-0----0-----------0-|-0----0-----------0-|
    i    i    i    i     i    i    i    i
G||--------------------|--------------------|| 
D||--------------------|--------------------||
A||--------------------|--------------------||
D||-0----0-----------0-|-0----0------0--5-3-||
    i    i    i    i     i    i    i    i
G||--------------------|--------------------||   x2
D||--------------------|--------------------||
A||--------------------|--------------------||
D||-0----0-----------0-|-0----0-----------0-||
    i    i    i    i     i    i    i    i
G||--------------------|--------------------|
D||--------------------|--------------------|
A||--------------------|--------------------|
D||-5----5-----------5-|-5----5-----------5-|
    i    i    i    i     i    i    i    i
G||--------------------|--------------------|
D||--------------------|--------------------|
A||--------------------|--------------------|
D||-5----5-----------5-|-5----5-------------|
    i    i    i    i     i    i    i    i
G||--------------------|--------------------||   x2 
D||--------------------|--------------------||
A||--------------------|--------------------||
D||-0----0-------------|-0----0-------------||
    i    i    i    i     i    i    i    i

Chorus 1

G||----------------------------|----------------------------|
D||----------------------------|----------------------------|
A||-12-12--12-12--12-12--12-12-|-12-12--12-12--12-12--12-12-|
D||----------------------------|----------------------------|
    i      i      i      i       i      i      i      i
G||--------------------|--------------------|
D||--------------------|--------------------|
A||-10\----------------|--------------------|
D||--------------------|--------------------|
    i    i    i    i     i    i    i    i    

Verse 2

G||--------------------|--------------------|
D||--------------------|--------------------|
A||--------------------|--------------------|
D||-0----0-----------0-|-0----0-----------0-|
    i    i    i    i     i    i    i    i
G||--------------------|--------------------|| 
D||--------------------|--------------------||
A||--------------------|--------------------||
D||-0----0-----------0-|-0----0-------------||
    i    i    i    i     i    i    i    i

G||--------------------|--------------------| 
D||--------------------|--------------------|
A||--------------------|--------------------|
D||-0----0-----------0-|-0----0-------------|
    i    i    i    i     i    i    i    i
G||--------------------|--------------------|| 
D||--------------------|--------------------||
A||--------------------|--------------------||
D||-0----0-----------0-|-0----0------0--5-3-||
    i    i    i    i     i    i    i    i
G||--------------------|--------------------| 
D||--------------------|--------------------|
A||--------------------|--------------------|
D||-0----0-----------0-|-0----0-------------|
    i    i    i    i     i    i    i    i
G||--------------------|--------------------|| 
D||--------------------|--------------------||
A||--------------------|--------------------||
D||-0----0-----------0-|-0----0-------------||
    i    i    i    i     i    i    i    i


G||--------------------|--------------------|
D||--------------------|--------------------|
A||--------------------|--------------------|
D||-5----5-----------5-|-5----5-----------5-|
    i    i    i    i     i    i    i    i
G||--------------------|--------------------|
D||--------------------|--------------------|
A||--------------------|--------------------|
D||-5----5-----------5-|-5----5-------------|
    i    i    i    i     i    i    i    i
G||--------------------|--------------------|
D||--------------------|--------------------|
A||-5------------------|--------------------|
D||--------------------|--------------------|
    i    i    i    i     i    i    i    i
G||--------------------|--------------------|
D||--------------------|--------------------|
A||--------------------|--------------------|
D||--------------------|--------------------|
    i    i    i    i     i    i    i    i
G||--------------------|--------------------|
D||--------------------|--------------------|
A||--------------------|--------------------|
D||--------------------|--------------------|
    i    i    i    i     i    i    i    i
G||--------------------|--------------------|
D||--------------------|--------------------|
A||--------------------|----------------7/--|
D||--------------------|--------------------|
    i    i    i    i     i    i    i    i

Chorus 2

G||----------------------------|----------------------------|
D||----------------------------|----------------------------|
A||-12-12--12-12--12-12--12-12-|-12-12--12-12--12-12--12-12-|
D||----------------------------|----------------------------|
    i      i      i      i       i      i      i      i
G||--------------------|--------------------|--------------------|
D||--------------------|--------------------|--------------------|
A||-10\----------------|--------------------|--------------------|
D||--------------------|--------------------|------------------7-|
    i    i    i    i     i    i    i    i     i    i    i    i

Solo

G||--------------------|--------------------|
D||--------------------|--------------------|
A||--------------------|--------------------|
D||---7--7-----------7-|---7--7-----------7-|
    i    i    i    i     i    i    i    i
G||--------------------|--------------------||   x2
D||--------------------|--------------------||
A||--------------------|--------------------||
D||---7--7-----------7-|---7----7----7----7-||
    i    i    i    i     i    i    i    i

G||--------------------|--------------------| 
D||--------------------|--------------------|
A||--------------------|--------------------|
D||-0----0-----------0-|-0----0-----------0-|
    i    i    i    i     i    i    i    i
G||--------------------|--------------------|| 
D||--------------------|--------------------||
A||--------------------|--------------------||
D||-0----0-----------0-|-0----0------0--5-3-||
    i    i    i    i     i    i    i    i
G||--------------------|--------------------|| 
D||--------------------|--------------------||
A||--------------------|--------------------||
D||-0----0-----------0-|-0----0------0--3-5-||
    i    i    i    i     i    i    i    i
G||--------------------|--------------------| 
D||--------------------|--------------------|
A||--------------------|--------------------|
D||-0----0-----------0-|-0----0-----------0-|
    i    i    i    i     i    i    i    i

Verse 3

G||--------------------|--------------------||   x4
D||--------------------|--------------------||
A||--------------------|--------------------||
D||-0----0-----------0-|-0----0-----------0-||
    i    i    i    i     i    i    i    i

Chorus 3

G||----------------------------|----------------------------|
D||----------------------------|----------------------------|
A||-12-12--12-12--12-12--12-12-|-12-12--12-12--12-12--12-12-|
D||----------------------------|----------------------------|
    i      i      i      i       i      i      i      i
G||--------------------|--------------------|--------------------||
D||--------------------|--------------------|--------------------||
A||-10\----------------|--------------------|--------------------||
D||--------------------|--------------------|-0------------------||
    i    i    i    i     i    i    i    i     i    i    i    i


Tab by Pedro Zappa
-----------------------------------------------------------------------------
-----------------------------------------------------------------------------
Suggest correction
What's this?
You can suggest a correction to this tab. Community and Mods will review your correction and vote to approve or reject it.
comments
We did not receive enough feedback on this tab! Please rate:
print report bad tab
1 2 3 4 5
1 comment total.
0 reply
luucherrybomb 63 wrote on August 20 2014, 09:00 pm

Lack of accuracy.

guest
You may want to rate the tab now too:
select rating
Please do not post tabs as comments. Select "correction" instead!