Oops, an error
Loading. Please wait.

Sweet Sour Tab

version 1
version 1

Whole song

12,897 views 12 this week
1 commentread comment
1 2 3 4 5
worth learning
x 4
add to favorites
launch autoscroll
font size
0
reset
how to read this tab
guitar tuner
Tab Pro tools
  • play this tab
  • loop segment
  • change instrument
  • show fretboard
  • metronome
×
Best way to learn
"Sweet Sour"
Autoscroll
slow
fast
+/-
esc
set tempo
stop
Contributor
#----------------------------------PLEASE NOTE--------------------------------#
#This file is the author's own work and represents their interpretation of the#
#song. You may only use this file for private study, scholarship, or research.#
#-----------------------------------------------------------------------------#
#-- File created with Instab - http://www.pconline.com/~smcarey/instab.html --#
#-----------------------------------------------------------------------------#

Author/Artist: Band Of Skulls
Title: Sweet Sour

h hammer on
p pull off
P pluck
/ slide up
\ slide down
() Bass
pb prebend



Tuning (eb A D G B E), (eb, D) Down ~ 10%
Live Standard Tuning
Key: (E + D) -> (E + A) or (D + C#)



----|----------------------------------------------------------------------|
----|----------------------------------------------------------------------|
----|----------------------------------------------------------------------|
----|----------------------------------------------------------------------|
----|-------15h17p15h17p15h17p15--------14h15p14h15p14h15p14-------12h14p--|
----|(11-11----------------------11-11-----------------------11-11---------|
  

  Intro/Verse/Chorus



-----------------------|-----------------------|----------|
-----------------------|-----------------------|----------|
-----------------------|-----------------------|----------|
-----------------------|-----------------------|----------|
-12h14p12h14p12--------|-10h12p10h12p10h12p10--|----------|
----------------11-11)-|-----------------------|-6/-------|
                        

                         End 1                   End 2                



----|-----------------------------|--|
----|-----------------------------|--|
----|-----------------------------|--|
----|-----------------------------|--|
----|-5--5--17h19p17h19p17h19p17--|--|
----|-4--4------------------------|--|
  

  Verse Pt.2 



----|-------------------------|
----|-------------------------|
----|-------------------------|
----|----------------17-18/19-|
----|--5--5----20-21----------|
----|--4--4--19---------------|
 

    




----|---------|--|---------------------------------------------------------|
----|---------|--|---------------------------------------------------------|
----|---------|--|---------------------------------------------------------|
----|---------|4x|---------------------------------------------------------|
----|---7---7-|--|---------------------------------------------------------|
----|-6---6---|--|-6\------------------------------------------------------|
  

  Chorus End G1        "Sour by the minute but your sweeter by the hour"





----|---------------------------------------|--|
----|---------------------------------------|--|
----|---------------------------------------|--|
----|-18b19--15h17--------------------------|--|
----|--------------20--19h20-19--17h19-pb17-|--|
----|---------------------------------------|--|
 

   Interlude G2





----|----------------|--|---------------|-----|--------|-------------------|
----|----------------|--|---------------|-----|--------|-------------------|
----|----------------|--|---------------|-----|--------|-------------------|
----|---------19-17\-|--|---------------|-----|--------|-------------------|
----|----------------|--|---------------|-----|--------|-5-----------------|
----|-6--6-6/--------|--|-6--6-6-6--6-6-|-----|--------|-6-----------------|
   

  Bridge G1                               Solo  Chorus   End
comments
print report bad tab
1 comment total.
0 reply
americablanco wrote on August 18 2014, 07:55 pm

Lack of accuracy. Tab incomplete.

I want to post or [tab]
guest
You may want to rate the tab now too:
select rating
Please do not post tabs as comments. Select "correction" instead!