Oops, an error
Loading. Please wait.

Sweet Sour Tab

version 2
version 2

Whole song

8,252 views 48 this week
1 commentread comment
1 2 3 4 5
excellent!
x 4
add to favorites
launch autoscroll
font size
0
reset
how to read this tab
guitar tuner
Tab Pro tools
  • play this tab
  • loop segment
  • change instrument
  • show fretboard
  • metronome
Autoscroll
slow
fast
+/-
esc
set tempo
stop
Contributor
Difficulty
intermediate
(/) Slide Up  (\) Slide Down  (h) Hammer On  (p) Pull Off  (b) Bend (r) Release (v) Vibrato

Structure:
- Intro
- Verse
- Intro (Only 2nd part)
- Verse
- Intro (Only 1st part)
- Bridge
- Intro (Only 2nd part)
- Verse
- Breakdown
- Bridge
- Solo
- Bridge

Intro:

E|--------------------------------------------------------|
B|--------------------------------------------------------|
G|--------------------------------------------------------|
D|-0h10p0h10p0h10p0h10p0h10p0----0h9p0h9p0h9p0h9p0h9p0----|
A|--------------------------------------------------------|
E|--------------------------------------------------------|

                             1st time only            2nd time only
E|------------------------|-------------------------|---------------|
B|------------------------|-------------------------|---------------|
G|------------------------|-------------------------|---------------|
D|-0h7p0h7p0h7p0h7p0h7p0--|--0h5p0h5p0h5p0h5p0h5p0--|---------------|
A|------------------------|-------------------------|---------------|
E|------------------------|-------------------------|--3/-----------|

Verse:

E|--------------------------------------------------------|
B|--------------------------------------------------------|
G|--------------------------------------------------------|
D|-0h10p0h10p0h10p0h10p0h10p0----0h9p0h9p0h9p0h9p0h9p0----|
A|--------------------------------------------------------|
E|--------------------------------------------------------|

E|--------------------------------------------------|
B|--------------------------------------------------|
G|--------------------------------------------------|  x2
D|-0h7p0h7p0h7p0h7p0h7p0-----0h5p0h5p0h5p0h5p0h5p0--|
A|--------------------------------------------------|
E|--------------------------------------------------|


E|-----------------------------------------------------------------|
B|-----------------------------------------------------------------|
G|-------0h10p0h10p0h10p0h10p0h10p0---------0h9p0h9p0h9p0h9p0h9p0--|
D|-5-5--------------------------------5-5--------------------------|
A|-5-5--------------------------------5-5--------------------------|
E|-3-3--------------------------------3-3--------------------------|

E|---------------------------------------------------------|
B|---------------------------------------------------------|
G|-------0h10p0h10p0h10p0h10p0h10p0---------0-10-12-12b14--|
D|-5-5--------------------------------5-5------------------|
A|-5-5--------------------------------5-5------------------|
E|-3-3--------------------------------3-3------------------|


Bridge:

   Hold for
   a while
E|------------|--------|
B|------------|--------|
G|------------|--------|
D|----7-------|--------|
A|----7-------|---5\1--|
E|----5-------|---5\1--|


Breakdown:

Hold the 12b14 out of the verse

E|--------------------------------------------------------------------|
B|--------------------------------------------------------------------|
G|--10h12-10---9h10-9---7h9-7------12b14---10h12-10---9h10-9---7h9-7--|
D|--------------------------------------------------------------------|
A|--------------------------------------------------------------------|
E|--------------------------------------------------------------------|

Solo:

E|----------------------|     |-----------------------------------|
B|----------------------|     |-----------------------------------|
G|----------------------| x3  |-----------------------------------|
D|--7-7-7---19-17v\-----|     |-----7-7-7-7-7-7-7-7-7---19-17v\---|
A|--7-7-7---------------|     |-----7-7-7-7-7-7-7-7-7-------------|
E|--5-5-5---------------|     |-----5-5-5-5-5-5-5-5-5-------------|

E|----------------------------------------------------------------|
B|----------------------------------------------------------------|
G|----------------------------------------------------------------|
D|--7-7-7---19-17v\-----7-7-7--19-17v-17-15-15-14-14-12-14-12-----|
A|--7-7-7---------------7-7-7-------------------------------------|
E|--5-5-5---------------5-5-5-------------------------------------|

E|--------------------------------------------------------|
B|--------------------------------------------------------|
G|-12-10----10b12--------------10b12---------------9-10---|
D|-------12-------12-----10-12-------12---10b12-12--------|
A|--------------------------------------------------------|
E|--------------------------------------------------------|

E|----------10----------10----------10---------------------------------------|
B|-------10----------10----------10----------10------------------------------|
G|-12b14-------12b14-------12b14-------12b14----12-10-10b12-------------9-10-|
D|----------------------------------------------------------12-10b12-12------|
A|---------------------------------------------------------------------------|
E|---------------------------------------------------------------------------|

E|---------------------------------------|
B|-12-12-10------12-10-------------------|
G|-12-12-10------12-10-------------------|
D|----------12---------12-10-------------|
A|---------------------------12-10-------|
E|---------------------------------13-10-|
comments
print report bad tab
1 comment total.
+1 reply
davidwilde2 wrote on November 10 2014, 04:59 pm

the way he plays it in https://www.youtube.com/watch?v=5e5SPwVBj9I is drop d, with a palm muted open d when the drummer hits the first two beats. this just means that the a chords at the end of the verse need to be changed to 555 instead of the 355 power chord. just the way i like to play it. great tab

I want to post or [tab]
guest
You may want to rate the tab now too:
select rating
Please do not post tabs as comments. Select "correction" instead!