Oops, an error
Loading. Please wait.

Sweet Sour Acoustic tab

version 3
version 3

Whole song

220 views 3 this week
no commentswrite comment
1 2 3 4 5
3 more votes to show rating
add to favorites
×
Save as Personal and add changes to this tab that will be seen only by you. Learn more ›
×
You can save this tab as Personal to edit and correct it or add notes. All changes will be seen only by you. Learn more »
launch autoscroll
font size
0
reset
how to read this tab
guitar tuner
edit
Autoscroll
slow
fast
+/-
esc
set tempo
stop
Sweet Sour 
Drop the low E to a D


[Intro]

e|----------------|----------------|----------------|----------------|
B|----------------|----------------|----------------|----------------|
G|----------------|----------------|----------------|----------------|
D|--10--10--10--10|--9---9---9---9-|--7---7---7---7-|--7---7---7---7-|  X 2
A|----------------|----------------|----------------|----------------|
D|-0---0---0---0--|-0---0---0---0--|-0---0---0---0--|-0---0---0---0--|


[Verse]

e|----------------|----------------|----------------|----------------|
B|----------------|----------------|----------------|----------------|
G|----------------|----------------|----------------|----------------|
D|--10--10--10--10|--9---9---9---9-|--7---7---7---7-|--7---7---7---7-|  X 2 
A|----------------|----------------|----------------|----------------|
D|-0---0---0---0--|-0---0---0---0--|-0---0---0---0--|-0---0---0---0--|


[Verse 1]

Did you bite the hand and feeds you
Do you feel the need to talk about it
Now you're fighting for your corner
Sayin' that you oughta laugh about it

e|----5-|
B|----6-|
G|----7-|
D|----5-|  X 8 
A|--5-5-|
D|--x-x-|

You should get a little braver
Do us all a favor, shout about it

e|----------------|----------------|----------------|----------------|
B|----------------|----------------|----------------|----------------|
G|----------------|----------------|----------------|----------------|
D|--10--10--10--10|--9---9---9---9-|--7---7---7---7-|--7---7---7---7-|  X 2
A|----------------|----------------|----------------|----------------|
D|-0---0---0---0--|-0---0---0---0--|-0---0---0---0--|-0---0---0---0--|

Sweet sour
Sweet sour
Sweet sour


e|----------------|----------------|----------------|----------------|
B|----------------|----------------|----------------|----------------|
G|----------------|----------------|----------------|----------------|
D|--10--10--10--10|--9---9---9---9-|--7---7---7---7-|--7---7---7---7-|  X 2
A|----------------|----------------|----------------|----------------|
D|-0---0---0---0--|-0---0---0---0--|-0---0---0---0--|-0---0---0---0--|


[Verse 2]

Pick up your stitches
Better than your riches
Think about it
I know what you've been through
We don't really need to talk about it


e|----5-|
B|----6-|
G|----7-|
D|----5-|  X 8 
A|--5-5-|
D|--x-x-|

It's just a little karma
Tryin' to disarm ya
Shout about it


e|----------------|----------------|----------------|----------------|
B|----------------|----------------|----------------|----------------|
G|----------------|----------------|----------------|----------------|
D|--10--10--10--10|--9---9---9---9-|--7---7---7---7-|--7---7---7---7-|  X 2
A|----------------|----------------|----------------|----------------|
D|-0---0---0---0--|-0---0---0---0--|-0---0---0---0--|-0---0---0---0--|

Sweet sour
Sweet sour
Sweet sour
Sweet sour


e|----5-|
B|----6-|
G|----7-|
D|----5-|  X 4
A|--5-5-|
D|--x-x-|

Sweet sour
Sweet sour

e|--3-|
B|--3-|
G|--3-|
D|--3-|
A|--3-|
D|--x-|

Sour by the minute but you're sweeter by the hour


e|----------------|----------------|----------------|----------------|
B|----------------|----------------|----------------|----------------|
G|----------------|----------------|----------------|----------------|
D|--10--10--10--10|--9---9---9---9-|--7---7---7---7-|--7---7---7---7-|
A|----------------|----------------|----------------|----------------|
D|-0---0---0---0--|-0---0---0---0--|-0---0---0---0--|-0---0---0---0--|


[Verse 3]

You were none the wiser
Even though you tried to understand it
Try another spoonful
Love is to be truthful
Dance around it

e|----5-|
B|----6-|
G|----7-|
D|----5-|  X 8 
A|--5-5-|
D|--x-x-|

It's just a little karma
Tryin' to disarm ya
Shout about it

e|----------------|----------------|----------------|----------------|
B|----------------|----------------|----------------|----------------|
G|----------------|----------------|----------------|----------------|
D|--10--10--10--10|--9---9---9---9-|--7---7---7---7-|--7---7---7---7-|  X 2
A|----------------|----------------|----------------|----------------|
D|-0---0---0---0--|-0---0---0---0--|-0---0---0---0--|-0---0---0---0--|

Sweet sour
Sweet sour
Sweet sour
Sweet sour

e|----5-|
B|----6-|
G|----7-|
D|----5-|  X 4
A|--5-5-|
D|--x-x-|

Sweet sour
Sweet sour

e|--3-|
B|--3-|
G|--3-|
D|--3-|
A|--3-|
D|--x-|

Sour by the minute but you're sweeter by the hour

e|---------------------------------------|
B|---------------------------------------|
G|--14-14-12-14-12-12-10-12-10-10-9-10-9-|
D|---------------------------------------|  X 4
A|---------------------------------------|
D|--0--0--0--0--0--0--0--0--0--0--0--0-0-|

  
Ooh  ooh  ooh  ooh  ooh  ooh  ooh  ooh  ooh


e|----------------|----------------|----------------|----------------|
B|----------------|----------------|----------------|----------------|
G|----------------|----------------|----------------|----------------|
D|--10--10--10--10|--9---9---9---9-|--7---7---7---7-|--7---7---7---7-|  X 2
A|----------------|----------------|----------------|----------------|
D|-0---0---0---0--|-0---0---0---0--|-0---0---0---0--|-0---0---0---0--|

Sweet sour 
Sweet sour
Sweet sour
Sweet sour

e|----5-|
B|----6-|
G|----7-|
D|----5-|  X 4
A|--5-5-|
D|--x-x-|

Sweet sour
Sweet sour

e|--3-|
B|--3-|
G|--3-|
D|--3-|
A|--3-|
D|--x-|

Sour by the minute but you're sweeter by the hour

*You can end on a harmonic on the D or not!
Suggest correction
Creating personal tab
Creating personal tab
You can edit any tab online and save it as your Personal.

You can edit, replace or remove any tab part or add personal notes – all changes will be seen only by you.

Personal tabs can be accessed anytime from any device, even offline.
Learn more »
Give kudos to tab author, rate the tab!
1 2 3 4 5
comments
print report bad tab
guest
You may want to rate the tab now too:
select rating
Wanna post a correction for this tab? Suggest correction