Oops, an error
Loading. Please wait.

The Devil Takes Care Of His Own Tab

version 2
version 2

Whole song

3,018 views 6 this week
no commentswrite comment
1 2 3 4 5
1 last vote to show rating
add to favorites
launch autoscroll
font size
0
reset
how to read this tab
guitar tuner
Autoscroll
slow
fast
+/-
esc
set tempo
stop
Help us to improve Ultimate-Guitar.com Take our survey!
×
Author
Difficulty
novice
[Intro]

          PM--X      PM            PM--X     PM           PM--X     PM
E|----------------------------------------------------------------------------|
B|----------------------------------------------------------------------------|
G|------------------------2--2--------------------2--2------------------------|
D|--2--2------------------2--2--------------------2--2-------------------2--2-|
A|--2--2--------0--2------0--0----------0--2------0--0---------0--2------2--2-|
E|--0--0---0--3------3-------------0--3------3------------0--3------3----0--0-|



[Verse]

          PM--X      PM            PM--X     PM           PM--X     PM
E|----------------------------------------------------------------------------|
B|----------------------------------------------------------------------------|
G|------------------------2--2--------------------2--2------------------------|
D|--2--2------------------2--2--------------------2--2-------------------2--2-|  
A|--2--2--------0--2------0--0----------0--2------0--0---------0--2------2--2-|
E|--0--0---0--3------3-------------0--3------3------------0--3------3----0--0-|


          PM--X      PM            PM--X     PM           PM--X    PM
E|---------------------------------------------------------------------------------------|
B|---------------------------------------------------------------------------------------|
G|------------------------2--2--------------------2--2-----------------------------------|
D|--2--2------------------2--2--------------------2--2-------------------2-2-2-2-2-2-2-2-|  
A|--2--2--------0--2------0--0----------0--2------0--0---------0--2------2-2-2-2-2-2-2-2-|
E|--0--0---0--3------3-------------0--3------3------------0--3------3----0-0-0-0-0-0-0-0-|



[Chorus]

Gtr1                         PM                            Hold_________________
E|--3-----------x-----x--------|     E|--3---------x-----x-----------------------|
B|--3-----------3--2--3--2-----|     B|--3---------3--2--3--2------------------2-| 
G|--0-----------2--2--2--2-----| x3  G|--0---------2--2--2--2------------------2-|
D|--0---2-------0--2--0--2---2-|     D|--0---2-----0--2--0--2------------------2-|
A|--2---2----------0-----0---0-|     A|--2---2--------0-----0------------------0-|
E|--3---0----------------------|     E|--3---0-----------------------------------|

Gtr2                         PM                            Hold________________
E|--------------------x--------|     E|------------------x-----------------------|
B|-----------------2--3--2-----|     B|---------------2--3--2------------------2-| 
G|-/12~-9-------9--2--2--2-----| x3  G|-/12~-9-----9--2--2--2------------------2-|
D|-/12~-9-------9--2--0--2---2-|     D|-/12~-9-----9--2--0--2------------------2-|
A|-----------------0-----0---0-|     A|---------------0-----0------------------0-|
E|-----------------------------|     E|------------------------------------------|



[Intro]
[Verse]



[Chorus 2]

Gtr1                       PM     
E|--3----------x-----x--------|     
B|--3----------3--2--3--2-----|     
G|--0----------2--2--2--2-----| x4  
D|--0---2------0--2--0--2---2-|    
A|--2---2---------0-----0---0-|    
E|--3---0---------------------|   

Gtr2                       PM     
E|-------------------x--------|   
B|----------------2--3--2-----|   
G|-/12~-9------9--2--2--2-----| x4 
D|-/12~-9------9--2--0--2---2-|     
A|----------------0-----0---0-|    
E|----------------------------|      
                                  

Gtr1                       PM                       Hold_______________
E|--3---------x-----x--------------3--------x-----x----------------------|
B|--3---------3--2--3--2-----------3--------3--2--3--2-----------------2-| 
G|--0---------2--2--2--2-----------0--------2--2--2--2-----------------2-|
D|--0---2-----0--2--0--2---2-------0--2-----0--2--0--2-----------------2-|
A|--2---2--------0-----0---0-------2--2--------0-----0-----------------0-|
E|--3---0--------------------------3--0----------------------------------|

Gtr2                      PM                        Hold_______________
E|------------------x-----------------------------x----------------------|
B|---------------2--3--2-----------------------2--3--2-----------------2-|
G|--12~-9-----9--2--2--2-----------12~-9----9--2--2--2-----------------2-|
D|--12~-9-----9--2--0--2---2-------12~-9----9--2--0--2-----------------2-|
A|---------------0-----0---0-------------------0-----0-----------------0-|
E|-----------------------------------------------------------------------|
    BR                              ^
                               slow 1/2 bend



[Bridge]                      
E|-------------0--0---------------0--0---------------0--0----------------------|     
B|-------------3--3~\-------------2--2~\-------------1--1~\--------------------|     
G|-------------0--0---------------0--0---------------0--0----------------------| 
D|--2-2--2--2----------2-2--2--2----------2-2--2--2-----------2-2--2--2--------|
A|--2-2--2--2----------2-2--2--2----------2-2--2--2-----------2-2--2--2--------|
E|--0-0--0--0----------0-0--0--0----------0-0--0--0-----------0-0--0--0--------| 
Suggest correction
Give kudos to tab author, rate the tab!
1 2 3 4 5
comments
print report bad tab
guest
You may want to rate the tab now too:
select rating
Wanna post a correction for this tab? Suggest correction