Oops, an error
Loading. Please wait.

Toreador Tab

1,031 views 3 this week
no commentswrite comment
1 2 3 4 5
x 4
add to favorites
launch autoscroll
font size
0
reset
how to read this tab
guitar tuner
Autoscroll
slow
fast
+/-
esc
set tempo
stop
Help us to improve Ultimate-Guitar.com Take our survey!
×
Author
Difficulty
intermediate
Tabbed by: Eric

Tuning: Standard

Intro - guitar comes in at 0:27
e|--------|
B|--------|
G|--------|
D|--------| x8
A|--------|
E|--55-0--|

Verse (0:35)
    x16       x6                      x8
e|--------|--------|--------------|--------|
B|--------|--------|--------------|--------|
G|--------|--------|--------------|--------|
D|--------|--------|--------------|--------|
A|--------|--55-0--|--55-5/7-5-3--|--------|
E|--55-0--|--------|--------------|--55-0--|

Chorus (1:07)
e|------------------------------------|
B|------------------------------------|
G|------------------------------------|
D|------------------------------------|
A|--12-12-10-7-0-5-5-3----------------|
E|---------------------5-0-5-5-7-8-5--|

e|-------------------------------------------------------|
B|-------------------------------------------------------|
G|-------------------------------------------------------|
D|-------------------------------------------------------|
A|--12-12-10-7-0-5-5-3-----7-5-3-5-3-2-------------------|
E|---------------------5-0-------------55-0-55-0-55-0-5--|

Verse (1:26)

Chorus (1:58)
e|---------------------------------------|
B|---------------------------------------|
G|---------------------------------------|
D|---------------------------------------|
A|--12-12-10-7-0-5-5-3-------------------|
E|---------------------5-0-5-5-7-8-5-----|

e|---------------------------------------|
B|---------------------------------------|
G|---------------------------------------|
D|---------------------------------------|
A|--12-12-10-7-0-5-5-3-----7-5-3-5-3-2~--|
E|---------------------5-0---------------|

Interlude - guitar comes in at 2:37 (palm muted)
e|------------------------------------------------------|
B|------------------------------------------------------|
G|--------------------10-10-10-10-10-10-10-10-99999999--|
D|--77777777-99999999-10-10-10-10-10-10-10-10-99999999--|
A|--77777777-99999999-8--8--8--8--8--8--8--8--77777777--|
E|--55555555-77777777-----------------------------------|

Solo (2:45)
e|-------------------------------------------------------------|
B|-5-3-5-3-5~----5-6-8-6-6-8p6-5----------------------8/10-----|
G|---------------------------------------------7-9-10------7~--|
D|----------------------------------5/7-7-9-10-----------------|
A|-------------------------------------------------------------|
E|-------------------------------------------------------------|

(2:55)
e|------------------------------------------|
B|--8h10p8-6-6h8p6-5-5p3--------------------|
G|-----------------------5-4----------------|
D|---------------------------7-7~-----------|
A|-----------------------------------/0~----|
E|------------------------------------------|

(3:01)
e|--12p0-0-0-10p0-0-0-8p0-0-0-7p0-0-0-5p0-0-0-3p0-0-0-1-1h3p1-0--------|
B|---------------------------------------------------------------------|
G|---------------------------------------------------------------------|
D|---------------------------------------------------------------------|
A|---------------------------------------------------------------0/14--|
E|---------------------------------------------------------------------|

Chorus (3:08)
e|---------------------------------------|
B|---------------------------------------|
G|---------------------------------------| x3
D|---------------------------------------|
A|--12-12-10-7-0-5-5-3-------------------|
E|---------------------5-0-5-5-7-8-5-----|

e|---------------------------------------|
B|---------------------------------------|
G|---------------------------------------|
D|---------------------------------------|
A|--12-12-10-7-0-5-5-3-----7-5-3-5-3-2~--|
E|---------------------5-0---------------|

Suggest correction
comments
print report bad tab
guest
You may want to rate the tab now too:
select rating
Wanna post a correction for this tab? Suggest correction