Oops, an error
Loading. Please wait.

Wanderluster Tab

version 2
version 2

Whole song

821 views 3 this week
no commentswrite comment
1 2 3 4 5
accurate
x 1
add to favorites
launch autoscroll
font size
0
reset
how to read this tab
guitar tuner
Tab Pro tools
  • play this tab
  • loop segment
  • change instrument
  • show fretboard
  • metronome
Autoscroll
slow
fast
+/-
esc
set tempo
stop
Contributor
Difficulty
intermediate
-------------------------------------------------------------------------------
                             WANDERLUSTER - Band of Skulls
-------------------------------------------------------------------------------
Tabbed by:MS49
E-mail:martinsmith149@hotmail.com

Tuning:Standard

Intro                           let ring
e|------------------|        |------------|
B|---10-p-8-8-10----|        |-10---------|
G|-9----------------|  x 12  |-9----------|
D|------------------|        |------------|
A|------------------|        |------------|
E|------------------|        |------------|

Riff 1
   x   x    xx x      xx x      xx x     xx x      xx x     xx x     xx x
e|--------------------------------------------------------------------------|
B|--------------------------------------------------------------------------|
G|--------------------------------------------------------------------------|
D|-5-5-5--5555-5-5--5555-5-5--5555-5-5-5553-3-3--3333-3-3-3333-3-3-3333-3-3-|
A|-x-x-x--xxxx-x-x--xxxx-x-x--xxxx-x-x-xxxx-x-x--xxxx-x-x-xxxx-x-x-xxxx-x---|
E|-3-3-3--3333-3-3--3333-3-3--3333-3-3-3331-1-1--1111-1-1-1111-1-1-1111-1-1-|

     xx x      xx x      xx x      xx x      xx
e|--------------------------------------------------------------------------|
B|--------------------------------------------------------------------------|
G|----1-1-1--1111-1-1--1111-1-1--1111-1-1--1111-----------------------------|
D|-3332-2-2--2222-2-2--2222-2-2--2222-2-2--2222-----------------------------|
A|-xxx2-2-2--2222-2-2--2222-2-2--2222-2-2--2222-----------------------------|
E|-1110-0-0--0000-0-0--0000-0-0--0000-0-0--0000-----------------------------|

Riff 2
  00:30
e|--------------------------------------------------------------------------|
B|--------------------------------------------------------------------------|
G|--------------------------------------------------------------------------|
D|-7-7-7--7777-7-7--7777-7-7--7777-7-7--7775-5-5--5555-5-5--5555-5-5--5555-5|
A|-x-x-x--xxxx-x-x--xxxx-x-x--xxxx-x-x--xxxx-x-x--xxxx-x-x--xxxx-x-x--xxxx-x|
E|-5-5-5--5555-5-5--5555-5-5--5555-5-5--5553-3-3--3333-3-3--3333-3-3--3333-3|

e|-------------------------------------------------------------------------|
B|-------------------------------------------------------------------------|
G|----------------------------------------------1-1-1--111-/--9-99-9999-99-|
D|-5--5553-3-3--3333-3-3--3333-3-3--3333-3-3-3332-2-2--222-/--x-xx-xxxx-xx-|
A|-x--xxxx-x-x--xxxx-x-x--xxxx-x-x--xxxx-x-x-xxx2-2-2--222-/--7-77-7777-77-|
E|-3--3331-1-1--1111-1-1--1111-1-1--1111-1-1-1110-0-0--000-/--x-xx-xxxx-xx-|

e|-------------------------|
B|-------------------------|
G|-9999-99--9999-99--999---|  Then back to intro x 15 before riff 3
D|-xxxx-xx--xxxx-xx--xxx---|
A|-7777-77--7777-77--777---|
E|-xxxx-xx--xxxx-xx--xxx---|

Riff 3
  01:03
e|--------------------------------------------------------------------------|
B|--------------------------------------------------------------------------|
G|--------------------------------------------------------------------------|
D|-77777777--777777777777777--77777777--777777777777777--77777777--777777777|
A|-xxxxxxxx--xxxxxxxxxxxxxxx--xxxxxxxx--xxxxxxxxxxxxxxx--xxxxxxxx--xxxxxxxxx|
E|-55555555--555555555555555--55555555--555555555555555--55555555--555555555|

e|--------------------------------------------------------------------------|
B|--------------------------------------------------------------------------|
G|--------------------------------------------------------------------------|
D|77777--777--10-9--5-55555555-555555555555555-55555555-555555555555555-5-4-|
A|xxxxx--xxx--x--x--x-xxxxxxxx-xxxxxxxxxxxxxxx-xxxxxxxx-xxxxxxxxxxxxxxx-x-x-|
E|55555--555--8--7--3-33333333-333333333333333-33333333-333333333333333-3-2-|

Riff 4
  01:30 clean vibrato sound
e|--------------------------|
B|-5------3------1------0---|
G|-5------4------2------1---|   Then repeat Riff 2 and Intro, followed by 
D|-x------x------2------2---|   Riff 3 twice before carrying on with Riff 5
A|-3------2------0------2---|
E|-x------x-------------0---|

Riff 5
  02:57 
e|----------------------------------------------------------------------|
B|----------------------------------------------------------------------|
G|----------------------------------------------------------------------|
D|------7~7~--------7~7~--------10-9--5----5~5~------5~5~-------5~5~----|
A|------------------------------x--x--x---------------------------------|
E|-5--55------5--55------5--55--8--7--3--33-----3--33-----3--33----3--33|

e|-------|
B|-------|
G|-------|  x2
D|-5-4-7-|
A|-x-x-x-|
E|-3-2-5-|

 
************************************

| /   slide up
| \   slide down
| h   hammer-on
| p   pull-off
| ~   vibrato
| +   harmonic
| x   Mute note
| b   Bend
| pb  Pre-bend
| br  Bend release
| pbr Pre-bend release
| brb Bend release bend

************************************
comments
We did not receive enough feedback on this tab! Please rate:
print report bad tab
1 2 3 4 5
I want to post or [tab]
guest
You may want to rate the tab now too:
select rating
Please do not post tabs as comments. Select "correction" instead!