Oops, an error
Loading. Please wait.

Rock Of Mages Tab

version 2
version 2

Whole song

Interactive

2,223 views 3 this week
2 commentsread comments
1 2 3 4 5
x 5
add to favorites
launch autoscroll
font size
0
reset
how to read this tab
guitar tuner
Autoscroll
slow
fast
+/-
esc
set tempo
stop
Help us to improve Ultimate-Guitar.com Take our survey!
×
Author
Okay this is my first tab so I'm glad it's going to something that doesn't have a tab yet.

Tabbed by Asterix_13

Key:

p - Pull Off
h - Hammer on
/ \ - Slide up or down
b - Bend
r - Release bend
T - Tap with your finger or the edge of your pick

Intro
E|----------------------------------|
B|----------------------------------|
G|----------------------------------|
D|----------------------------------|
A|----------------------------------|
E|-12p0-0-7p0-0-000-8p0-0-5p0-0-000-|

0:13 - Harmony intro part  - Tabbed both guitars but this can easily be played on 1.

Guitar 1
E|---------------------------------|-------------------------------------------------|
B|---------------------------------|-------------------------------------------------|
G|-9b11----11b12----12b14----14b16-|-----16--17--14---16--12--14b16r14~~~~~~~~~~~~~~~|
D|---------------------------------|-14----------------------------------------------|
A|---------------------------------|-------------------------------------------------|
E|---------------------------------|-------------------------------------------------|

Guitar 2
E|---------------------------------|-------------------------------------15-14-------|
B|-8b10----10b12----12b14----14b15-|-------------------------------------------15----|
G|---------------------------------|----------------------------------------------14-|
D|---------------------------------|-------------------------------------------------|
A|---------------------------------|-------------------------------------------------|
E|---------------------------------|-------------------------------------------------|

0:29 - Verse 1
E|---------------------------------------------------|------------------|
B|---------------------------------------------------|------------------|
G|-9-9---9-9-9------9-9---9-9-9------9-9---9-9-9-----|------------------|
D|-9-9---9-9-9------9-9---9-9-9------9-9---9-9-9-----|------------------|
A|-7-7---7-7-7------7-7---7-7-7------7-7---7-7-7-----|-------5-7-5-10-9-|
E|-------------000--------------000--------------000-|-5-7-8------------|

0:35 - Solo 1 (over verse riff)
E|-------------------------------------------|------------------------------------------|
B|-------------------------------------------|------------------------------------------|
G|----12-----14-----11-----12--11h12p11-9----|----12-----14-----11-----12-11h12p11-9----|
D|-9------9------9------9-----------------12-|-9------9------9------9----------------12-|
A|-------------------------------------------|------------------------------------------|
E|-------------------------------------------|------------------------------------------|

E|--------------------|------------------------------------------------|----------------------|
B|---------15---------|-12h13p12p10-12p10------------------------------|----------------------|
G|-14b16~-----14b16~--|-------------------12p11 11h12p11p9-11p9--------|-14b16r14p12-14-14b16-|
D|--------------------|-----------------------------------------12p10--|----------------------|
A|--------------------|------------------------------------------------|----------------------|
E|--------------------|------------------------------------------------|----------------------|

E|-------------------------------------------|-------------------------------------------------|
B|-------------------------------------------|-------------------------------------------------|
G|----12-----14-----11-----12--11h12p11-9----|----12-----14-----11-----12-11b12r11-9-----------|
D|-9------9------9------9-----------------12-|-9------9------9------9----------------12-12/14--|
A|-------------------------------------------|-------------------------------------------------|
E|-------------------------------------------|-------------------------------------------------|


E|----------------------|----------------------------------------------14b15r14p12h14-10-|
B|-------------15-------|-12h15p12--12h15p12h15p12--12h15p12h15p12--12-------------------|
G|----12-14b16----14b16~|---------14--------------14--------------14---------------------|
D|-14-------------------|----------------------------------------------------------------|
A|----------------------|----------------------------------------------------------------|
E|----------------------|----------------------------------------------------------------|

1:03 - Chorus
E|---------------------------------------------------------------|
B|---------------------------------------------------------------|
G|---------------10-------------12-------------14----------------|
D|-7-------------10-------------12-------------14----------------|
A|-7-------------8--------------10-------------12--------------|
E|-5--0-0-0-0-0------0-0-0-0-0------0-0-0-0-0------0-0-0-5p3-----|
      Battle!!!   Wooaaahhhhhh      Cry!!!!!!   Cryyyyyyyyyy

E|-------------------------------------------------------------------|
B|-------------------------------------------------------------------|
G|---------------10--------------12----------------------------------|
D|-7-------------10--------------12--------------------------------|
A|-7-------------8---------------10-------------3-2-3-5-3-2-------|
E|-5--0-0-0-0-0------0-0-0-0-0-------0-0-0-0-0--------------5-3------|
      Battle!!!   Wooaaahhhhhh       Cry!!!!!!

1:16 - Chorus Chanting
E|---------------------------------------------|--------------------|
B|---------------------------------------------|--------------------|
G|---------------------------------------------|--------------------|
D|-2-2---2-2-2---2-2-2---2-2-2---2-2-2---2-2-2-|--------------------|
A|-2-2---2-2-2---2-2-2---2-2-2---2-2-2---2-2-2-|--------5-------5---|
E|-0-0---0-0-0---0-0-0---0-0-0---0-0-0---0-0-0-|--0-3-3---3-5-5---5-|
   Wooooooooaaaaaaaaaaaaaaaaahhhhhhhhhhhhhhhhh
                                                                       Repeat x2
E|---------------------------------------------|-------------------|
B|---------------------------------------------|-------------------|
G|---------------------------------------------|-------------------|
D|-2-2---2-2-2---2-2-2---2-2-2---2-2-2---2-2-2-|-------------------|
A|-2-2---2-2-2---2-2-2---2-2-2---2-2-2---2-2-2-|-----9-10-----9-10-|
E|-0-0---0-0-0---0-0-0---0-0-0---0-0-0---0-0-0-|-0-0------0-0------|
   Wooooooooaaaaaaaaaaaaaaaaahhhhhhhhhhhhhhhhh

1:44 - Repeat Verse riff but finish it with
E|-----------------------|
B|-----------------------|
G|-----------------------|
D|-4-5-4---4-------------|
A|-------7---7-5-7-5-4---|
E|---------------------1-|

1:51 - Solo 2 (Over verse riff)

E|--------------------------------------------|--------------------------------------------|
B|----12-----13-----10-----12--12h13p12-10----|----12-----13-----10-----12--12h13p12-10----|
G|-9------9------9------9------------------12-|-9------9------9------9------------------12-|
D|--------------------------------------------|--------------------------------------------|
A|--------------------------------------------|--------------------------------------------|
E|--------------------------------------------|--------------------------------------------|

E|-------12-12-----14-----15----|-17b19-17-15-17b19-15-------------------------|
B|-15b17----15b17--17b19--18b20-|-------------------------13b15r13p12h13-13b15-|
G|------------------------------|----------------------------------------------|
D|------------------------------|----------------------------------------------|
A|------------------------------|----------------------------------------------|
E|------------------------------|----------------------------------------------|

E|--------------------------------------------|--------------------------------------------|
B|----12-----13-----10-----12--12h13p12-10----|----12-----13-----10-----12--12h13p12-10----|
G|-9------9------9------9------------------12-|-9------9------9------9------------------12-|
D|--------------------------------------------|--------------------------------------------|
A|--------------------------------------------|--------------------------------------------|
E|--------------------------------------------|--------------------------------------------|
                                              T        T        T        T        T        T
E|------15--------15h17p15--15h19p15--|-12h15h17p15p12-19p15p12-17p15p12-19p15p12-17p15p12-19p1512|
B|15b17----15b17----------17--------17|-----------------------------------------------------------|
G|------------------------------------|-----------------------------------------------------------|
D|------------------------------------|-----------------------------------------------------------|
A|------------------------------------|-----------------------------------------------------------|
E|------------------------------------|-----------------------------------------------------------|

   T        T        T        T        T
E|20p15p12-19p15p12-20p15p12-19p15p12-20p15p12-22b24-|
B|---------------------------------------------------|
G|---------------------------------------------------|
D|---------------------------------------------------|
A|---------------------------------------------------|
E|---------------------------------------------------|

2:18 - Repeat Chorus

2:32 - Repeat Chorus Chanting riff twice

2:59 - Bridge 1
                                         -----------Play this bar x3------------|
E|--------------------------------------|---------------------------------------|
B|--------------------------------------|---------------------------------------|
G|--------------------------------------|---------------------------------------|
D|-----10h14-------12-------10-------12-|-------14-------12-------10-------12---|
A|--------------------------------------|---------------------------------------|
E|-0-0-------0-0-0----0-0-0----0-0-0----|-0-0-0----0-0-0----0-0-0----0-0-0------|

After playing the second bar 3 times the harmony guitar comes in and you play the 
whole bridge again.

Harmony guitar
E|-------------------------------------|--------------------------------------|
B|-------------------------------------|--------------------------------------|
G|-----9h12--------11-------9--------11|-------12-------11-------9-------11---|
D|-------------------------------------|--------------------------------------|
A|-------------------------------------|--------------------------------------|
E|-0-0------0-0-0-----0-0-0----0-0-0---|-0-0-0----0-0-0----0-0-0---0-0-0------|


3:25 - End bridge section with
E|-----------------------|
B|-----------------------|
G|-----------------------|
D|--------------------12-|
A|-----9-10-----9-10--12-|
E|-7-7------9-9-------10-|

3:30 - Bass Interlude - The first two times it plays it has a clean guitar playing in 
background but it's too quiet for me to figure out.
So here's the bass interlude arranged for guitar.

E|-----------------|-------------------|------------------|-----------|
B|-----------------|-------------------|------------------|-----------|
G|-----------------|-------------------|------------------|-----------|
D|-----------------|-------------------|------------------|-----------|
A|-----7-7/9-7-----|---5-5---5---7---7-|-----7-7/9-7------|---5-5-5---|
E|-0-7---------10-7|-3-----3---3---5---|-0-7---------10-7-|-3-------3-|

3:43 - Bridge 2 - Lots of bends. Listen closely to see how the bends and releases should be.

E|----------------------------------------------------|
B|---------------------------10b12r10b12-10b12r10-8-7~|
G|-----7h9-9b12r9-7h9~--------------------------------|
D|-7h9------------------------------------------------|
A|----------------------------------------------------|
E|----------------------------------------------------|

3:58 - This part is another harmony part. It's really off but some of the notes seem close.
It can be used as a guide I guess. And again - can be done on 1 guitar

Guitar 1
E|--------------------------------------|---------------------------------------|------------------|
B|8--15--15b16r15--13--15--12--15b16r15-|-8--15--15b17--15--13--12--8--15b16r15-|-17-15-17-14-15-14|
G|--------------------------------------|---------------------------------------|------------------|
D|--------------------------------------|---------------------------------------|------------------|
A|--------------------------------------|---------------------------------------|------------------|
E|--------------------------------------|---------------------------------------|------------------|
                                                                                         
               Repeat x2
Guitar 2
E|--------------------------------------|---------------------------------------|------------------|
B|--------------------------------------|---------------------------------------|------------------|
G|9--14--14b15r14--12--14--12--14b15r14-|-9--14--14b16--14--12--12--9--14b15r14-|-16-14-16-13-14-13|
D|--------------------------------------|---------------------------------------|------------------|
A|--------------------------------------|---------------------------------------|------------------|
E|--------------------------------------|---------------------------------------|------------------|

4:40 - Pre-solo - Timing is messed up but I tried hard to line up the guitar 2 with guitar 1

Guitar 1
E|----------------------------------|----------------------------------|
B|----------------------------------|----------------------------------|
G|----------------------------------|----------------------------------|
D|----------------------------------|----------------------------------|
A|----------------------------------|----------------------------------|
E|-12p0-0-7p0-0-000-8p0-0-5p0-0-000-|-12p0-0-7p0-0-000-8p0-0-5p0-0-000-|

Guitar 2
E|----------------------------------|----------------------------------|
B|----------------------------------|----------------------------------|
G|----------------------------------|----------------------------------|
D|----------------------------------|----------------------------------|
A|----------------------------------|----------------------------------|
E|----------------------------------|----------------------------------|

Guitar 1
E|----------------------------------|----------------------------------|
B|----------------------------------|----------------------------------|
G|----------------------------------|----------------------------------|
D|----------------------------------|----------------------------------|
A|----------------------------------|----------------------------------|
E|-12p0-0-7p0-0-000-8p0-0-5p0-0-000-|-12p0-0-7p0-0-000-8p0-0-5p0-0-000-|

Guitar 2
E|----------------------------------|----------------------------------|
B|----------------------------------|----------------------------------|
G|----------------------------------|----------------------------------|
D|-2-2----2-2-2----2-2-2---2-2-2---2|-2-2----2-2-2---2-2-2---2-2-2-----|
A|-2-2----2-2-2----2-2-2---2-2-2---2|-2-2----2-2-2---2-2-2---2-2-2-----|
E|-0-0----0-0-0----0-0-0---0-0-0---0|-0-0----0-0-0---0-0-0---0-0-0-----|

Guitar 1
E|----------------------------------|----------------------------------|
B|----------------------------------|----------------------------------|
G|----------------------------------|----------------------------------|
D|----------------------------------|----------------------------------|
A|----------------------------------|----------------------------------|
E|-12p0-0-7p0-0-000-8p0-0-5p0-0-000-|-12p0-0-7p0-0-000-8p0-0-5p0-0-000-|

Guitar 2
E|----------------------------------|----------------------------------|
B|----------------------------------|----------------------------------|
G|-9------4---------5---------------|-9------4---------5---------------|
D|-9------4---------5-----7---------|-9------4---------5-----7---------|
A|-7------2---------3-----7---------|-7------2---------3-----7---------|
E|----0-0---0-0-000---0-0-5-0-0-000-|----0-0---0-0-000---0-0-5-0-0-000-|

Guitar 1
E|----------------------------------|----------------------------------|
B|----------------------------------|----------------------------------|
G|----------------------------------|----------------------------------|
D|----------------------------------|----------------------------------|
A|----------------------------------|----------------------------------|
E|-12p0-0-7p0-0-000-8p0-0-5p0-0-000-|-12p0-0-7p0-0-000-8p0-0-5p0-0-000-|

Guitar 2
E|----------------------------------|----------------------------------|
B|----------------------------------|----------------------------------|
G|-9------4---------5---------------|-9------4---------5---------------|
D|-9------4---------5-----7---------|-9------4---------5-----7---------|
A|-7------2---------3-----7---------|-7------2---------3-----7---------|
E|----0-0---0-0-000---0-0-5-0-0-000-|----0-0---0-0-000---0-0-5-0-0-000-|

5:07 - Main Solo
E|-------------------------------------------------------|
B|-13h15p13p12-------------------------------------------|
G|-------------14h16p14p12-----16-16b17-14-16-12-14b16r14|
D|-------------------------14----------------------------|
A|-------------------------------------------------------|
E|-------------------------------------------------------|

                     5:15                                                  5:19
E|-----------------------------------------------------------------------------------------|
B|-15b17r15-13-12-------12-------12-------12-------12-------12-------12--------------------|
G|----------------14b16----14b16----14b16----14b16----14b16----14b16----14b17r14b16--12-11-|
D|-----------------------------------------------------------------------------------------|
A|-----------------------------------------------------------------------------------------|
E|-----------------------------------------------------------------------------------------|

   5:22
E|-15p14--14h17p14--14h15p14--14h17p14--14h15p14--14h17p14--14h15p14--14h17p14------|
B|------17--------17--------17--------17--------17--------17--------17--------17----|
G|----------------------------------------------------------------------------------|
D|----------------------------------------------------------------------------------|
A|----------------------------------------------------------------------------------|
E|----------------------------------------------------------------------------------|

   5:25
E|-14h15p14h17p14--14h15p14h17p14--14h15p14h17p14--14h15p14h17p14--14------|
B|---------------17--------------17--------------17--------------17--17b19-|
G|-------------------------------------------------------------------------|
D|-------------------------------------------------------------------------|
A|-------------------------------------------------------------------------|
E|-------------------------------------------------------------------------|

   5:28                                                                       5:31
E|-15h17p15--15h19p15--15h17p15--15h19p15--15h17p15--15h19p15--15h17p15h19p15h19p15h19p15-|
B|---------19--------19--------19--------19--------19--------19---------------------------|
G|----------------------------------------------------------------------------------------|
D|----------------------------------------------------------------------------------------|
A|----------------------------------------------------------------------------------------|
E|----------------------------------------------------------------------------------------|

   5:32 - This part is tricky. Easier to do if you have slow-down software because it's 
to hear the right way.
E|-17p15h19p15h20p15h19p15h17p15h19p15h17p15h19p15h20p15h19p15h17p15-15-15----|
B|----------------------------------------------------------------------19b20-|
G|----------------------------------------------------------------------------|
D|----------------------------------------------------------------------------|
A|----------------------------------------------------------------------------|
E|----------------------------------------------------------------------------|

                                     5:41
E|----------------------------------|----------------------------------------------------|
B|-------15b17-15-13-12-------------|-17-15p13h15-13p12h13--12p10h12--13p12h13--13p12h13-|
G|----16----------------12-14b16r14-|----------------------------------------------------|
D|-14-------------------------------|----------------------------------------------------|
A|----------------------------------|----------------------------------------------------|
E|----------------------------------|----------------------------------------------------|

                                      5:49
E|----------------------------------|-------------------------------------------------------------|
B|-15p13h15--15p13h15--17b19~-------|-19-19-19-19-19-19-18-18-18-17-17-17-17-17-17-17-17-17-17-17-|
G|----------------------------------|-------------------------------------------------------------|
D|----------------------------------|-------------------------------------------------------------|
A|----------------------------------|-------------------------------------------------------------|
E|----------------------------------|-------------------------------------------------------------|

    This bar is all tremolo picked         Tremolo pick all 19's
E|-15-14----17-15----20-19----17----|-19--17p15-19--17p15-19--17p15-19-|
B|----------------------------------|----------------------------------|
G|----------------------------------|----------------------------------|
D|----------------------------------|----------------------------------|
A|----------------------------------|----------------------------------|
E|----------------------------------|----------------------------------|
Suggest correction
comments
print report bad tab
2 comments total.
0 reply
hildesaw 131 Jul 21, 2009 11:32 AM

Its an alright tab, a bunch of minor mistakes here and there but overall pretty decent. The bass solo sounds kinda funky to me, so this might be a little better:

E|------------------|------------------|-----------------|------------|
B|------------------|------------------|-----------------|------------|
G|-----------------|------------------|-----------------|-------------|
D|-----------------|------------------|-----------------|--------------|
A|-----7-7/9-7-----|---5-5---5---7---7|-----7-7/9-7-----|---5-5----5---|
E|-0-7---------10-7|-3-----3---5---5--|-0-7---------10-7|-3----3-0--3-|

0 reply
hildesaw 131 Jul 21, 2009 11:33 AM

That came out really ugly but you can still see the top lines haha

guest
You may want to rate the tab now too:
select rating
Wanna post a correction for this tab? Suggest correction