Oops, an error
Loading. Please wait.

Swallow The Razor Bass Tab

396 views 1 this week
no commentswrite comment
1 2 3 4 5
please rate
add to favorites
launch autoscroll
font size
0
reset
guitar tuner
Autoscroll
slow
fast
+/-
esc
set tempo
stop
Help us to improve Ultimate-Guitar.com Take our survey!
×
Author
------------------------------------------------------------------------------
                             Swallow the Razor
                                Bang Camaro
------------------------------------------------------------------------------

Tabbed By: Chaotic976
Tuning: Standard

   Intro Riff 1 (x2)
G|--------------------|
D|--------------------|
A|--------------------|
E|--2-------0--2------|

   Intro Riff 2 (x2)
G|---------------------------------------------------------------------------|
D|---------------------------------------------------------------------------|
A|---------------------------------------------------------------------------|
E|---2---2---2---2---2---2-0-2-5-2-0---2---2---2---2---2---2-0-2-5-5-5-------|

   Verse (x4)
G|---------------------------------------------------------------------------|
D|---------------------------------------------------------------------------|
A|---------------------------------------------------------------------------|
E|---2---0-2-0-0-2---0-2-2-0-2-5-2-0---2---0-2-0-0-2---0-2-2-0-2-5---5-------|

   Chorus (x2)
G|-------------------------|
D|-------------------------|
A|---2--------0------------|
E|-----------------0-------|

G|---------------------------------------------------------------------------|
D|---------------------------------------------------------------------------|
A|---------------------------------------------------------------------------|
E|---2---2---2---2---2---2-0-2-5-2-0---2---2---2---2---2---2-0-2-5-5-5-------|

   Verse (x4)
G|---------------------------------------------------------------------------|
D|---------------------------------------------------------------------------|
A|---------------------------------------------------------------------------|
E|---2---0-2-0-0-2---0-2-2-0-2-5-2-0---2---0-2-0-0-2---0-2-2-0-2-5---5-------|

   Chorus (x2)
G|-------------------------|
D|-------------------------|
A|---2--------0------------|
E|-----------------0-------|

G|---------------------------------------------------------------------------|
D|---------------------------------------------------------------------------|
A|---------------------------------------------------------------------------|
E|---2---2---2---2---2---2-0-2-5-2-0---2---2---2---2---2---2-0-2-5-5-5-------|

   Solo 1 (x2)
G|-------------------------|
D|-------------------------|
A|-------------------------|
E|---2--------0--2---------|

   Bridge (x4)
G|-------------------------------------------------------------------|
D|-------------------------------------------------------------------|
A|-------------------------------------3-2-3----------5-4-5----------|
E|--2----5-4-5-----2----7-6-7-----2--------------2-------------------|

   Pre-Solo/Solo 2 (x12)
G|------------------------------------------|
D|--------4-4-4-------------2-2-------------|
A|--------------3-3-3-4-4-4-----------------|
E|--2-2-2-----------------------0-0---------|

   Chorus (x1)
G|-------------------------|
D|-------------------------|
A|---2--------0------------|
E|-----------------0-------|

G|---------------------------------------------------------------------------|
D|---------------------------------------------------------------------------|
A|---------------------------------------------------------------------------|
E|---2---2---2---2---2---2-0-2-5-2-0---2---2---2---2---2---2-0-2-5-5-5-------|

   Outro (x1)
G|--------------------------|
D|--------------------------|
A|---2--------0-------------|
E|-----------------0----2\--|

| /  slide up
| \  slide down
| h  hammer-on
| p  pull-off
| ~  vibrato
| +  harmonic
| x  Mute note
===============================================================================
Suggest correction
Give kudos to tab author, rate the tab!
1 2 3 4 5
comments
print report bad tab
guest
You may want to rate the tab now too:
select rating
Wanna post a correction for this tab? Suggest correction