Oops, an error
Loading. Please wait.

Swallow The Razor Tab

version 1
version 1

Intro

Whole song

346 views 1 this week
3 commentsread comments
1 2 3 4 5
please rate
add to favorites
launch autoscroll
font size
0
reset
how to read this tab
guitar tuner
Tab Pro tools
  • play this tab
  • loop segment
  • change instrument
  • show fretboard
  • metronome
×
Best way to learn
"Swallow The Razor"
Autoscroll
slow
fast
+/-
esc
set tempo
stop
Contributor
Difficulty
novice
This song is like all the rest of Bang Camaros songs, sweet!!!!!! I’ll keep working on the whole song


                         Guitar 1
e|---------------------------------------------|
b|---------------------------------------------|
g|---------------------------------------------|  X8
d|--444---444--------------22------------------|
a|--444----------222--444-------44-------------|
e|--222----------------------------------------|


                        Guitar 2
e|------------------------------------------------------------------------|
b|------------------------------------------------------------------------|
g|------------------------------------------------------------------------|
d|--4--------------2—4---- X2 for the first 8 seconds, then join guitar 1-|
a|--4--------------2—4----------------------------------------------------|
e|--2--------------0—2----------------------------------------------------|


                       Guitar 3 pickslide a few times at 9 seconds
comments
We did not receive enough feedback on this tab! Please rate:
print report bad tab
1 2 3 4 5
3 comments total.
+2 reply
ericgentz wrote on September 4 2007, 10:55 pm

This is pretty good. I've tabbed this out (whole thing) I might submit it if I get the time. The intro is incorrect here though.

E|---
B|---
G|---(first time only, then rythm places chord, lead plays 222)
D|2-(4-4-4)--444------------22----
A|2-(4-4-4)-------333--444------00
E|0--2-2-2-------------------------222

+1 reply
Guitarawr wrote on October 21 2007, 09:35 pm

More people need to pay attention to this band! Good modern metal is becoming harder and harder to find these days...keep workin' at it, man.

0 reply
napalm890 wrote on March 17 2008, 05:53 pm

damn,I havn't found a complete, let alone accurate Bang Camaro tab anywhere on the internet

I want to post or [tab]
guest
You may want to rate the tab now too:
select rating
Please do not post tabs as comments. Select "correction" instead!