Oops, an error
Loading. Please wait.

Someone Like You bass

version 1
version 1

Whole song

Interactive

448 views 3 this week
no commentswrite comment
1 2 3 4 5
3 more votes to show rating
add to favorites
×
Save as Personal and add changes to this tab that will be seen only by you. Learn more ›
×
You can save this tab as Personal to edit and correct it or add notes. All changes will be seen only by you. Learn more »
launch autoscroll
font size
0
reset
guitar tuner
edit
Autoscroll
slow
fast
+/-
esc
set tempo
stop
------------------------------------------------------------------------------
                        Someone Like You - Bang Tango
------------------------------------------------------------------------------

Tabbed by: ChrisT

From the Album: Psycho Cafe (1989)

Tuning: Eb Ab Db Gb

Intro (0:13)
Gb|----------------------------------------------------------------------|
Db|----------------------------------------------------------------------|
Ab|---0-0-0-0-0-0-0-0-0-0-0-0-0-0-0-0-3-3-3-3-3-3-3-3-3-3-3-3-3-3-3-3----|
Eb|----------------------------------------------------------------------|

Gb|----------------------------------------------------------------------|
Db|----------------------------------------------------------------------|
Ab|---5-5-5-5-5-5-5-5-5-5-5-5-5-5-5-5------------------------------------|
Eb|-----------------------------------0-0-0-0-0-0-0-0-0------------------|

                                Repeat x3
Gb|--------------------------------------|------------------------------------|
Db|o------------------------------------o|------------------------------------|
Ab|o--0-0-3-2-0-3-2-0-5-3-0-6-5-3-5-3---o|--0-0-3-2-0-3-2-0-3-3---3-3---3-2---|
Eb|--------------------------------------|------------------------------------|

Verse 1                         Repeat x4
Gb|--------------------------------------|
Db|o------------------------------------o|
Ab|o------------------------------------o|
Eb|---0-0-3-2-0-3-2-0-5-3-0-6-5-3-5-3----|

                                Repeat x3
Gb|--------------------------------------|
Db|o------------------------------------o|
Ab|o--0-0-3-2-0-3-2-0-5-3-0-6-5-3-5-3---o|
Eb|--------------------------------------|

Gb|----------------------------------------------|
Db|----------------------------------------------|
Ab|---7-7-7-7-7-7-7-7/19-19-19-19-19-19-19-19----|
Eb|----------------------------------------------|

Chorus
Gb|----------------------------------------------------------------------|
Db|----------------------------------------------------------------------|
Ab|---0---0-0-0-0-0-0-3---3-3-3-3-3-3-5---5-5-5-7---3---0-0-0-0-0-0-0----|
Eb|----------------------------------------------------------------------|

Gb|----------------------------------------------------------------------|
Db|-----------------------------------------------------5-7-5-7-----5----|
Ab|---0---0-0-0-0-0-0-3---3-3-3-3-3-3-5---5-5-5-7---3-----------5-7------|
Eb|----------------------------------------------------------------------|

Gb|----------------------------------------------------------------------|
Db|----------------------------------------------------------------------|
Ab|---0---0-0-0-0-0-0-3---3-3-3-3-3-3-5---5-5-5-7---3---0-0-0-0-0-0-0----|
Eb|----------------------------------------------------------------------|

Gb|----------------------------------------------------------------------|
Db|----------------------------------------------------------------------|
Ab|---0---0-0-0-0-0-0-3---3-3-3-3-3-3------------------------------------|
Eb|-----------------------------------3-3-3-3-3-3-3-3-0------------------|

Gb|---------------------|--------------------------------------|
Db|---------------------|o------------------------------------o|
Ab|-----0-5-0-3-0-3-2---|o--0-0-3-2-0-3-2-0-5-3-0-6-5-3-5-3---o|
Eb|---------------------|--------------------------------------|

Verse                          Repeat x4
Gb|--------------------------------------|
Db|o------------------------------------o|
Ab|o------------------------------------o|
Eb|---0-0-3-2-0-3-2-0-5-3-0-6-5-3-5-3----|

                                Repeat x3
Gb|--------------------------------------|
Db|o------------------------------------o|
Ab|o--0-0-3-2-0-3-2-0-5-3-0-6-5-3-5-3---o|
Eb|--------------------------------------|

Gb|----------------------------------------------|
Db|----------------------------------------------|
Ab|---7-7-7-7-7-7-7-7/19-19-19-19-19-19-19-19----|
Eb|----------------------------------------------|

Chorus
Gb|----------------------------------------------------------------------|
Db|----------------------------------------------------------------------|
Ab|---0---0-0-0-0-0-0-3---3-3-3-3-3-3-5---5-5-5-7---3---0-0-0-0-0-0-0----|
Eb|----------------------------------------------------------------------|

Gb|----------------------------------------------------------------------|
Db|-------------------------------------------------------5-7-5----------|
Ab|---0---0-0-0-0-0-0-3---3-3-3-3-3-3-5---5-5-5-7---3---0-------7-5------|
Eb|-----------------------------------------------------------------5----|

Gb|----------------------------------------------------------------------|
Db|----------------------------------------------------------------------|
Ab|---0---0-0-0-0-0-0-3---3-3-3-3-3-3-5---5-5-5-7---3---0-0-0-0-0-0-0----|
Eb|----------------------------------------------------------------------|

Gb|----------------------------------------------------------------------|
Db|----------------------------------------------------------------------|
Ab|---0---0-0-0-0-0-0-3---3-3-3-3-3-3-------------------7-----7---7------|
Eb|-----------------------------------3-3-3-3-3-3-3-3-0---0-0------------|

Bridge
Gb|-----------------------------------------------------------------------|
Db|o---------------------------------------------------------------------o|
Ab|o-------------------------------------------------------7-----7-------o|
Eb|----3-3-3-3-3-3-3-3-2-2-2-2-2-2-2-2-0-0-0-0-0-0-0-0-0-0----------------|

Gb|-----------------------------------------------|
Db|o---------------------------------------------o|
Ab|o---3-3-3-3-3-3-3-3/12-12-12-12-12-10---------o|
Eb|--------------------------------------12-10----|

Gb|----------------------------------------------------------------------|
Db|----------------------------------------------------------------------|
Ab|---3-3-3-3-3-3-3-3-5-5-5-5-5-5-5-5-7-----7-----7-----7-----7-----5----|
Eb|--------------------------------------0-----0-----0-------------------|

Guitar Solo
Gb|----------------------------------------------------------------------|
Db|----------------------------------------------------------------------|
Ab|---0---0-0-0-0-0-0-3---3-3-3-3-3-3-5---5-5-5-7---3---0-0-0-0-0-0-0----|
Eb|----------------------------------------------------------------------|

Gb|----------------------------------------------------------------------|
Db|-----------------------------------------------------5-7-7-7-5--------|
Ab|---0---0-0-0-0-0-0-3---3-3-3-3-3-3-5---5-5-5-7---3-------------7------|
Eb|-----------------------------------------------------------------5----|

Gb|----------------------------------------------------------------------|
Db|----------------------------------------------------------------------|
Ab|---0---0-0-0-0-0-0-3---3-3-3-3-3-3-5---5-5-5-7---3---0-0-0-0-0-0-0----|
Eb|----------------------------------------------------------------------|

Gb|----------------------------------------------------------------------|
Db|-----------------------------------5---5-5-5-5-5-5-7---7-7-7-7-7-7----|
Ab|---0---0-0-0-0-0-0-3---3-3-3-3-3-3------------------------------------|
Eb|----------------------------------------------------------------------|

Outro
Gb|----------------------------------------------------------------------|
Db|----------------------------------------------------------------------|
Ab|---0---0-0-0-0-0-0-3---3-3-3-3-3-3-5---5-5-5-7---3---0-0-0-0-0-0-0----|
Eb|----------------------------------------------------------------------|

                                                         Repeat Until Fade
Gb|-----------------------------------------------------------------------|
Db|o---------------------------------------------------------------------o|
Ab|o---0---0-0-0-0-0-0-3---3-3-3-3-3-3-5---5-5-5-5-5-5-0---0-0-0-0-0-0---o|
Eb|-----------------------------------------------------------------------|


            
            
Suggest correction
Creating personal tab
Creating personal tab
You can edit any tab online and save it as your Personal.

You can edit, replace or remove any tab part or add personal notes – all changes will be seen only by you.

Personal tabs can be accessed anytime from any device, even offline.
Learn more »
Give kudos to tab author, rate the tab!
1 2 3 4 5
comments
print report bad tab
guest
You may want to rate the tab now too:
select rating
Wanna post a correction for this tab? Suggest correction