Oops, an error
Loading. Please wait.

Reflection Chords

262 views 54 this week
no commentswrite comment
1 2 3 4 5
1 last vote to show rating
add to favorites
launch autoscroll
font size
0
reset
transpose
0
reset
display chords
guitar tuner
Autoscroll
slow
fast
+/-
esc
set tempo
stop
Help us to improve Ultimate-Guitar.com Take our survey!
×
Author
Difficulty
novice
[Intro]
e|-------------|-----------|-----------|-----------|-----------|2--2--0----|0--0-------|9--2--2----|
B|--2--2--2----|2--2--0----|2--0-------|2----------|---0--2----|-----------|------3----|-----------|
G|-------------|-----------|------0----|---2-------|2----------|-----------|-----------|-----------|
D|-------------|-----------|-----------|------2----|-----------|-----------|-----------|-----------|
A|-------------|-----------|-----------|-----------|-----------|-----------|-----------|-----------|
E|-------------|-----------|-----------|-----------|-----------|-----------|-----------|-----------|


[Break]
e|--0----------|0----------|------5----|------3----|0----------|0----------|5----3----|5----0----|
B|-----3--2----|---3-------|0----------|0----------|---3--2----|---3-------|----------|----------|
G|-------------|------2----|---2-------|---2-------|-----------|------2----|----------|----------|
D|-------------|-----------|-----------|-----------|-----------|-----------|----------|----------|
A|-------------|-----------|-----------|-----------|-----------|-----------|----------|----------|
E|-------------|-----------|-----------|-----------|-----------|-----------|----------|----------|


[Verse 1]
    A
I know every life’s a movie
    G
We got different stars and stories
    F
We got different nights and mornings
      E
Our scenarios ain’t just boring

               A
naneun i yeonghwaga neomu jaemisseo
I find this movie very amusing
       G
maeilmaeil jal jjikgo sipeo
Everyday, I want to shoot it well
           F
nan nal sseudadeumeojugo sipeo
I want to caress myself
      E
nal sseudadeumeojugo sipeo
I want to caress myself

                      A
geunde marya gakkeum naneun naega neomuneomu miwo
But you know, sometimes I really really hate myself
               G
sasil kkwaena jaju naneun naega neomu miwo
To be honest, quite often, I really hate myself
             F
naega neomu miul ttae nan ttukseome wa
When I really hate myself, I go to Dduksum
               E
geunyang seo isseo, iksukhan eodumgwa
I just stand there with the familiar darkness

                   A
utgo itneun saramdeulgwa nareul utge haneun beer
With the people that are smiling and beer, which makes me smile

               G
seulmyeosi dagawaseo naui soneul japneun fear
Coming to me softly, fear, which holds my hand
        F
gwaenchanha da dulsesinikka
It’s okay because everyone is in twos or threes
          E
nado chinguga isseum johjanha
It’d be nice if I had friends too


[Solo]

   A
sesangeun jeolmangui tto dareun ireum
The world is just another name for despair
      G
naui kineun jiguui tto dareun jireum
My height is just another diameter for the earth
        F
naneun naui modeun gippeumija sireum
I am all of my joy and anxiety
       E
maeil banbokdwae nal hyanghan johgo silheum
It repeats everyday, the love and hate directed to me

          A
jeogi hangangeul boneun chinguya
Hey you, who’s looking over the Han River
                  G
uri otgiseul seuchimyeon inyeoni doelkka
If we bump into each other while passing, would it be fate?
                F
ani uri jeonsaenge seuchyeosseulji molla
Or maybe we bumped into each other in our past life
                  E
eojjeom sueopsi budijhyeosseuljido molla
Maybe we bumped into each other countless times

                    A
eodum sogeseo saramdeureun natboda haengbokhae boine
In the darkness People look happier than the day
              G
dadeul jagiga isseul goseul aneunde naman harileopsi geotne
Everyone else knows where they’re supposed to be, but only I walk without purpose
          F
geuraedo yeogi seokkyeoitneun ge deo pyeonhae
But still, blending in with them is more comfortable
                    E
bameul samkin ttukseomeun naege jeonhyeo dareun sesangeul geonne
Dduksum, which has swallowed up the night, hands me an entirely different world

        A
naneun jayuropgo sipda
I want to be free
            G
jayuegeseo jayuropgo sipda
I want to be free from freedom
                   F
jigeumeun haengbokhande bulhaenghanikka
Because right now I’m happy but I’m unhappy
               E
naneun nareul bone
I’m looking at myself

ttukseomeseo
At Dduksum

[Break]

   A
I wish I could love myself              |
   G                                    |
I wish I could love myself              |
   F                                    | x2
I wish I could love myself              |
   E                                   |
I wish I could love myself              |
Suggest correction
Give kudos to tab author, rate the tab!
1 2 3 4 5
comments
print report bad tab
guest
You may want to rate the tab now too:
select rating
Wanna post a correction for this tab? Suggest correction