Oops, an error
Loading. Please wait.

Beggin For Thread bass

version 1
version 1

Whole song

  • First bass tab for this song, there may be a few errors in the bridge. Enjoy...

Interactive

by Banks
229 views 6 this week
no commentswrite comment
1 2 3 4 5
3 more votes to show rating
add to favorites
×
Save as Personal and add changes to this tab that will be seen only by you. Learn more ›
×
You can save this tab as Personal to edit and correct it or add notes. All changes will be seen only by you. Learn more »
launch autoscroll
font size
0
reset
guitar tuner
edit
Autoscroll
slow
fast
+/-
esc
set tempo
stop
Author
Difficulty
About this tab version
First bass tab for this song, there may be a few errors in the bridge. Enjoy... Was this info helpful? Yes No
[Intro]

G|---------------------|
D|---------------------|
A|8--4--4-11--3--4-----| X2
E|---------------------|

[Verse 1]

G|---------------------|
D|---------------------|
A|8--4--4-11--3--4-----| X8
E|---------------------|
(prechorus has no bass)
[Chorus]

G|---------------------|
D|---------------------|
A|8--4--4-11--3--4-----| X8
E|---------------------|

[Verse 2]

G|---------------------|
D|---------------------| (first two bars have no bass)
A|8--4--4-11--3--4-----| X6
E|---------------------|

[Chorus]

G|---------------------|
D|---------------------|
A|8--4--4-11--3--4-----| X8
E|---------------------|

[Bridge]

G|---------------------------|
D|---------------------------|
A|4----11----8--6----8--4----| X4
E|---------------------------|

[Chorus]

G|---------------------|
D|---------------------|
A|8--4--4-11--3--4-----| X8
E|---------------------|


Suggest correction
Creating personal tab
Creating personal tab
You can edit any tab online and save it as your Personal.

You can edit, replace or remove any tab part or add personal notes – all changes will be seen only by you.

Personal tabs can be accessed anytime from any device, even offline.
Learn more »
Give kudos to tab author, rate the tab!
1 2 3 4 5
comments
print report bad tab
guest
You may want to rate the tab now too:
select rating
Wanna post a correction for this tab? Suggest correction