Oops, an error
Loading. Please wait.

Mother Earth tab

version 2
version 2

Whole song

  • No one's done it yet, and it is an easy, simple song to play and sing to.
  • The guitarist in the studio version has their own ... Show more
by Banks
268 views 6 this week
no commentswrite comment
1 2 3 4 5
3 more votes to show rating
add to favorites
×
Save as Personal and add changes to this tab that will be seen only by you. Learn more ›
×
You can save this tab as Personal to edit and correct it or add notes. All changes will be seen only by you. Learn more »
launch autoscroll
font size
0
reset
how to read this tab
guitar tuner
edit
Autoscroll
slow
fast
+/-
esc
set tempo
stop
Author
Difficulty
About this tab version
The guitarist in the studio version has their own finger pickings and additions, but this is the overall tab if you want to play along. Was this info helpful? Yes No
[Intro and Verse]
e|------------|------------|------------|------------|
b|------------|------------|------------|------------|
G|----2--2----|-----4--4---|-----2--2---|-----4----3-| 2x for Intro
D|-----2--2---|------4--4--|------2--2--|------4---3-| 2x for Verse
A|------------|------------|------------|------------|
E|-0-2--------|--0-4-------|--0-2-------|--0-4---0-3-|

Underwater
Consuming all my kind
Destined for alterations
And my mind ain't aligned for her daughter
I know I'm Mother Earth, I see the weather

[Pre-chorus]
e|-------------|-------------|-------------|-------------|
b|---5~--4~-4--|-------------|---5~--4~-4--|-------------|
G|---4~--3~-3--|-------2--2--|---4~--3~-3--|----2--------|
D|-------------|--------2--2-|-------------|-----2-------|
A|--(4)--------|-------------|-------------|-------------|
E|------(4)----|----0-2------|--0----------|---2---------|

So I’m not gonna cover up the freckles on my faces
I covered all the bases

[Chorus]
e|-------------|-------------|
b|---2--0--2---|-0-------0---|
G|---2--2--2---|-2----2---2--|
D|-------------|------2----2-| 3x
A|-------------|-------------|
E|-0-2--2--2---|-2----0------|

e|-------------|
b|----2--0-2/4-|
G|----2--2-2/4-|
D|-------------|
A|-------------|
E|--0-2--2-2/4-|

e|-------------|-------------|-------------|-------------|
b|---2--0--2---|-0-------0---|---2--0-2----|-------------|
G|---2--2--2---|-2----2---2--|---2--2-2----|--0----2-----|
D|-------------|------2----2-|-------------|---2----2----|
A|-------------|-------------|-------------|-2-----------|
E|-0-2--2--2---|-2----0------|-0-2--2-2----|-------------|

e|-------------|-------------|
b|---2--0-2----|-0-------0---|
G|---2--2-2----|-2----2---2--|
D|-------------|------2----2-|
A|-------------|-------------|
E|-0-2--2-2----|-2----0------|

e|-------------|
b|----2--0-2/4-|
G|----2--2-2/4-|
D|-------------|
A|-------------|
E|--0-2--2-2/4-|

Follow me to my bed
‘Cause every time you fall, I’ll be holdin’ your head up
And when will you get tired of feeling bad?
And every time you fall, follow me
Follow me to my bed
‘Cause every time you fall, I’ll be holdin’ your head up
And when will you get tired of feeling bad?
And every time you fall, follow me

[Verse 2] (same as Verse 1)
e|------------|------------|------------|------------|
b|------------|------------|------------|------------|
G|----2--2----|-----4--4---|-----2--2---|-----4----3-| 
D|-----2--2---|------4--4--|------2--2--|------4---3-| 2x
A|------------|------------|------------|------------|
E|-0-2--------|--0-4-------|--0-2-------|--0-4---0-3-| 

He’s so hollow
My baby mated blind until he wasted fate
And so I’m left behind until he cursed my sorrow
But I know I'm Mother Earth, I see the weather

[Pre-chorus 2] (same as Pre-chorus 1)
e|-------------|-------------|-------------|-------------|
b|---5~--4~-4--|-------------|---5~--4~-4--|-------------|
G|---4~--3~-3--|-------2--2--|---4~--3~-3--|----2--------|
D|-------------|--------2--2-|-------------|-----2-------|
A|--(4)--------|-------------|-------------|-------------|
E|------(4)----|----0-2------|--0----------|---2---------|

So I won't let you pull up in all my safest places
I covered all the bases

[Chorus]
e|-------------|-------------|
b|---2--0--2---|-0-------0---|
G|---2--2--2---|-2----2---2--|
D|-------------|------2----2-| 3x
A|-------------|-------------|
E|-0-2--2--2---|-2----0------|

e|-------------|
b|----2--0-2/4-|
G|----2--2-2/4-|
D|-------------|
A|-------------|
E|--0-2--2-2/4-|

e|-------------|-------------|-------------|-------------|
b|---2--0--2---|-0-------0---|---2--0-2----|-------------|
G|---2--2--2---|-2----2---2--|---2--2-2----|--0----2-----|
D|-------------|------2----2-|-------------|---2----2----|
A|-------------|-------------|-------------|-2-----------|
E|-0-2--2--2---|-2----0------|-0-2--2-2----|-------------|

e|-------------|-------------|
b|---2--0-2----|-0-------0---|
G|---2--2-2----|-2----2---2--|
D|-------------|------2----2-|
A|-------------|-------------|
E|-0-2--2-2----|-2----0------|

e|-------------|
b|----2--0-2/4-|
G|----2--2-2/4-|
D|-------------|
A|-------------|
E|--0-2--2-2/4-|

Follow me to my bed
‘Cause every time you fall, I’ll be holdin’ your head up
And when will you get tired of feeling bad?
And every time you fall, follow me
Follow me to my bed
‘Cause every time you fall, I’ll be holdin’ your head up
And when will you get tired of feeling bad?
And every time you fall, follow me

[Outro]
e|-------------|-------------|-------------|-------------|
b|---5~--4~-4--|-------------|---5~--4~-4--|-------------|
G|---4~--3~-3--|-------2--2--|---4~--3~-3--|----2--------|
D|-------------|--------2--2-|-------------|-----2-------|
A|--(4)--------|-------------|-------------|-------------|
E|------(4)----|----0-2------|--0----------|---2---------|

e|-------------|-------------|
b|---2--0--2---|-0-------0---|
G|---2--2--2---|-2----2---2--|
D|-------------|------2----2-| 3x
A|-------------|-------------|
E|-0-2--2--2---|-2----0------|

e|-------------|
b|----2--0-2/4-|
G|----2--2-2/4-|
D|-------------|
A|-------------|
E|--0-2--2-2/4-|


***********************************

| /   Slide-up
| ~   Vibrato
| ()  Optional/Ghost note

***********************************

            
            
Suggest correction
Creating personal tab
Creating personal tab
You can edit any tab online and save it as your Personal.

You can edit, replace or remove any tab part or add personal notes – all changes will be seen only by you.

Personal tabs can be accessed anytime from any device, even offline.
Learn more »
Give kudos to tab author, rate the tab!
1 2 3 4 5
comments
print report bad tab
guest
You may want to rate the tab now too:
select rating
Wanna post a correction for this tab? Suggest correction