Oops, an error
Loading. Please wait.

The Suffering tab

61 views 1 this week
no commentswrite comment
1 2 3 4 5
3 more votes to show rating
add to favorites
×
Save as Personal and add changes to this tab that will be seen only by you. Learn more ›
×
You can save this tab as Personal to edit and correct it or add notes. All changes will be seen only by you. Learn more »
launch autoscroll
font size
0
reset
how to read this tab
guitar tuner
edit
Autoscroll
slow
fast
+/-
esc
set tempo
stop
Baphoment - The suffering

Tabbed by Phillip Roccisano
Drop D tuning, You can also use Drop C.
 


     PM PM PM PM PM PM          PM PM PM PM PM PM        
     E  E  E  E  E  E  E  E     E  E  E  E  E  E  E  E   
D|--------------------------|--------------------------|
A|--------------------------|--------------------------|
F|--------------------------|--------------------------|
C|--x--x--x--x--x--x--5--6--|--x--x--x--x--x--x--5--6--|
G|--x--x--x--x--x--x--5--6--|--x--x--x--x--x--x--5--6--|
D|--3--2--0--3--2--0--5--6--|--3--2--0--3--2--0--5--6--|


    PM PM PM PM PM PM          PM PM PM PM PM PM          PM PM                 
    E  E  E  E  E  E  E  E     E  E  E  E  E  E  E  E     E  E  E  H        E   
D|--------------------------|--------------------------|-----------------------|
A|--------------------------|--------------------------|-----------------------|
F|--------------------------|--------------------------|-----------------------|
C|--x--x--x--x--x--x--5--6--|--x--x--x--x--x--x--5--6--|--x--x--0--------------|
G|--x--x--x--x--x--x--5--6--|--x--x--x--x--x--x--5--6--|--x--x--0--------------|
D|--3--2--0--3--2--0--5--6--|--3--2--0--3--2--0--5--6--|--0--0--0--------------|


       PM PM                      PM PM                        PM PM          
    E  E  E  E  H           E  E  E  E  E  E  E  E     Q    E  E  E  E  Q     
D|-----------------------|--------------------------|------------------------|
A|-----------------------|--------------------------|------------------------|
F|-----------------------|--------------------------|------------------------|
C|-----x--x--0-----------|--------x--x--0-----------|----------x--x--0-------|
G|-----x--x--0-----------|--------x--x--0-----------|----------x--x--0-------|
D|-----0--0--0-----------|--------0--0--0-----------|----------0--0--0-------|


             PM PM PM PM    PM PM       PM PM PM PM    PM PM       PM PM PM PM  
    H        E  E  E  E     E  E  E  E  E  E  E  E     E  E  E  E  E  E  E  E   
D|-----------------------|--------------------------|--------------------------|
A|-----------------------|--------------------------|--------------------------|
F|-----------------------|--------------------------|--------------------------|
C|-----------x--x--x--x--|--x--x--5--6--x--x--x--x--|--x--x--5--6--x--x--x--x--|
G|-----------x--x--x--x--|--x--x--5--6--x--x--x--x--|--x--x--5--6--x--x--x--x--|
D|-----------3--2--0--2--|--2--0--5--6--3--2--0--3--|--2--0--5--6--3--2--0--3--|


    PM PM       PM PM PM PM    PM PM       PM PM PM PM  
    E  E  E  E  E  E  E  E     E  E  E  E  E  E  E  E   
D|--------------------------|--------------------------|
A|--------------------------|--------------------------|
F|--------------------------|--------------------------|
C|--x--x--5--6--x--x--x--x--|--x--x--5--6--x--x--x--x--|
G|--x--x--5--6--x--x--x--x--|--x--x--5--6--x--x--x--x--|
D|--2--0--5--6--3--2--0--3--|--2--0--5--6--3--2--0--3--|


    PM PM       PM PM PM PM    PM PM       PM PM PM PM  
    E  E  E  E  E  E  E  E     E  E  E  E  E  E  E  E   
D|--------------------------|--------------------------|
A|--------------------------|--------------------------|
F|--------------------------|--------------------------|
C|--x--x--5--6--x--x--x--x--|--x--x--5--6--x--x--x--x--|
G|--x--x--5--6--x--x--x--x--|--x--x--5--6--x--x--x--x--|
D|--2--0--5--6--3--2--0--3--|--2--0--5--6--3--2--0--3--|


    PM PM       PM PM PM PM    PM PM          PM PM PM  
    E  E  E  E  E  E  E  E     E  E  E  E  E  E  E  E   
D|--------------------------|--------------------------|
A|--------------------------|--------------------------|
F|--------------------------|--------------------------|
C|--x--x--5--6--x--x--x--x--|--x--x--5--6--x--x--x--x--|
G|--x--x--5--6--x--x--x--x--|--x--x--5--6--x--x--x--x--|
D|--2--0--5--6--3--2--0--3--|--2--0--5--6--0--0--0--0--|


    PM PM PM PM    PM PM           PM PM PM    PM PM PM  
    E  E  E  E  E  E  E  E      E  E  E  E  E  E  E  E   
D|---------------------------|--------------------------|
A|---------------------------|--------------------------|
F|---------------------------|--------------------------|
C|--x--x--x--x--3--x--x--3S--|--4--x--x--x--0--x--x--x--|
G|--x--x--x--x--3--x--x--3S--|--4--x--x--x--0--x--x--x--|
D|--0--0--0--0--3--0--0--3S--|--4--0--3--2--0--0--0--0--|


    PM PM PM PM    PM PM           PM PM PM    PM PM PM  
    E  E  E  E  E  E  E  E      E  E  E  E  E  E  E  E   
D|---------------------------|--------------------------|
A|---------------------------|--------------------------|
F|---------------------------|--------------------------|
C|--x--x--x--x--3--x--x--3S--|--4--x--x--x--0--x--x--x--|
G|--x--x--x--x--3--x--x--3S--|--4--x--x--x--0--x--x--x--|
D|--0--0--0--0--3--0--0--3S--|--4--0--3--2--0--0--0--0--|


    PM PM PM PM    PM PM           PM PM PM    PM PM PM  
    E  E  E  E  E  E  E  E      E  E  E  E  E  E  E  E   
D|---------------------------|--------------------------|
A|---------------------------|--------------------------|
F|---------------------------|--------------------------|
C|--x--x--x--x--3--x--x--3S--|--4--x--x--x--0--x--x--x--|
G|--x--x--x--x--3--x--x--3S--|--4--x--x--x--0--x--x--x--|
D|--0--0--0--0--3--0--0--3S--|--4--0--3--2--0--0--0--0--|


    PM PM PM PM    PM PM           PM PM PM    PM PM PM  
    E  E  E  E  E  E  E  E      E  E  E  E  E  E  E  E   
D|---------------------------|--------------------------|
A|---------------------------|--------------------------|
F|---------------------------|--------------------------|
C|--x--x--x--x--3--x--x--3S--|--4--x--x--x--0--x--x--x--|
G|--x--x--x--x--3--x--x--3S--|--4--x--x--x--0--x--x--x--|
D|--0--0--0--0--3--0--0--3S--|--4--0--3--2--0--0--0--0--|


    PM PM PM PM    PM PM           PM PM PM    PM PM PM  
    E  E  E  E  E  E  E  E      E  E  E  E  E  E  E  E   
D|---------------------------|--------------------------|
A|---------------------------|--------------------------|
F|---------------------------|--------------------------|
C|--x--x--x--x--3--x--x--3S--|--4--x--x--x--0--x--x--x--|
G|--x--x--x--x--3--x--x--3S--|--4--x--x--x--0--x--x--x--|
D|--0--0--0--0--3--0--0--3S--|--4--0--3--2--0--0--0--0--|


    PM PM PM PM    PM PM           PM PM PM    PM PM PM  
    E  E  E  E  E  E  E  E      E  E  E  E  E  E  E  E   
D|---------------------------|--------------------------|
A|---------------------------|--------------------------|
F|---------------------------|--------------------------|
C|--x--x--x--x--3--x--x--3S--|--4--x--x--x--0--x--x--x--|
G|--x--x--x--x--3--x--x--3S--|--4--x--x--x--0--x--x--x--|
D|--0--0--0--0--3--0--0--3S--|--4--0--3--2--0--0--0--0--|


    PM PM PM PM    PM PM           PM PM PM    PM PM PM  
    E  E  E  E  E  E  E  E      E  E  E  E  E  E  E  E   
D|---------------------------|--------------------------|
A|---------------------------|--------------------------|
F|---------------------------|--------------------------|
C|--x--x--x--x--3--x--x--3S--|--4--x--x--x--0--x--x--x--|
G|--x--x--x--x--3--x--x--3S--|--4--x--x--x--0--x--x--x--|
D|--0--0--0--0--3--0--0--3S--|--4--0--3--2--0--0--0--0--|


    PM PM PM PM    PM PM           PM PM       PM PM PM  
    E  E  E  E  E  E  E  E      E  E  E  E  E  E  E  E   
D|---------------------------|--------------------------|
A|---------------------------|--------------------------|
F|---------------------------|--------------------------|
C|--x--x--x--x--3--x--x--3S--|--4--x--x--x--0--x--x--x--|
G|--x--x--x--x--3--x--x--3S--|--4--x--x--x--0--x--x--x--|
D|--0--0--0--0--3--0--0--3S--|--4--0--3--2--0--0--0--0--|


    PM PM PM PM    PM PM           PM PM PM    PM PM PM  
    E  E  E  E  E  E  E  E      E  E  E  E  E  E  E  E   
D|---------------------------|--------------------------|
A|---------------------------|--------------------------|
F|---------------------------|--------------------------|
C|--x--x--x--x--3--x--x--3S--|--4--x--x--x--0--x--x--x--|
G|--x--x--x--x--3--x--x--3S--|--4--x--x--x--0--x--x--x--|
D|--0--0--0--0--3--0--0--3S--|--4--0--3--2--0--0--0--0--|


    PM PM PM PM    PM PM           PM PM PM    PM PM PM  
    E  E  E  E  E  E  E  E      E  E  E  E  E  E  E  E   
D|---------------------------|--------------------------|
A|---------------------------|--------------------------|
F|---------------------------|--------------------------|
C|--x--x--x--x--3--x--x--3S--|--4--x--x--x--0--x--x--x--|
G|--x--x--x--x--3--x--x--3S--|--4--x--x--x--0--x--x--x--|
D|--0--0--0--0--3--0--0--3S--|--4--0--3--2--0--0--0--0--|


    PM PM PM PM    PM PM           PM PM PM    PM PM PM  
    E  E  E  E  E  E  E  E      E  E  E  E  E  E  E  E   
D|---------------------------|--------------------------|
A|---------------------------|--------------------------|
F|---------------------------|--------------------------|
C|--x--x--x--x--3--x--x--3S--|--4--x--x--x--0--x--x--x--|
G|--x--x--x--x--3--x--x--3S--|--4--x--x--x--0--x--x--x--|
D|--0--0--0--0--3--0--0--3S--|--4--0--3--2--0--0--0--0--|


    PM PM PM PM    PM PM           PM PM PM    PM PM      
    E  E  E  E  E  E  E  E      E  E  E  E  E  E  E  E    
D|---------------------------|---------------------------|
A|---------------------------|---------------------------|
F|---------------------------|---------------------------|
C|--x--x--x--x--3--x--x--3S--|--4--x--x--x--8--x--x--5S--|
G|--x--x--x--x--3--x--x--3S--|--4--x--x--x--8--x--x--5S--|
D|--0--0--0--0--3--0--0--3S--|--4--0--3--2--8--0--0--5S--|


       PM PM PM    PM PM           PM PM PM    PM PM      
    E  E  E  E  E  E  E  E      E  E  E  E  E  E  E  E    
D|---------------------------|---------------------------|
A|---------------------------|---------------------------|
F|---------------------------|---------------------------|
C|--6--x--x--x--8--x--x--5S--|--6--x--x--x--8--x--x--5S--|
G|--6--x--x--x--8--x--x--5S--|--6--x--x--x--8--x--x--5S--|
D|--6--0--0--0--8--0--0--5S--|--6--0--0--0--8--0--0--5S--|


       PM PM PM    PM PM          PM PM PM    PM PM      
    E  E  E  E  E  E  E  E     E  E  E  E  E  E  E  E    
D|--------------------------|---------------------------|
A|--------------------------|---------------------------|
F|--------------------------|---------------------------|
C|--6--x--x--x--8--x--x--5--|--6--x--x--x--8--x--x--5S--|
G|--6--x--x--x--8--x--x--5--|--6--x--x--x--8--x--x--5S--|
D|--6--0--0--0--8--0--0--5--|--6--0--0--0--8--0--0--5S--|


       PM PM PM    PM PM           PM PM PM    PM PM      
    E  E  E  E  E  E  E  E      E  E  E  E  E  E  E  E    
D|---------------------------|---------------------------|
A|---------------------------|---------------------------|
F|---------------------------|---------------------------|
C|--6--x--x--x--8--x--x--5S--|--6--x--x--x--8--x--x--5S--|
G|--6--x--x--x--8--x--x--5S--|--6--x--x--x--8--x--x--5S--|
D|--6--0--0--0--8--0--0--5S--|--6--0--0--0--8--0--0--5S--|


       PM PM PM    PM PM           PM PM PM    PM PM      
    E  E  E  E  E  E  E  E      E  E  E  E  E  E  E  E    
D|---------------------------|---------------------------|
A|---------------------------|---------------------------|
F|---------------------------|---------------------------|
C|--6--x--x--x--8--x--x--5S--|--6--x--x--x--8--x--x--5S--|
G|--6--x--x--x--8--x--x--5S--|--6--x--x--x--8--x--x--5S--|
D|--6--0--0--0--8--0--0--5S--|--6--0--0--0--8--0--0--5S--|


       PM PM PM    PM PM           PM PM PM    PM PM      
    E  E  E  E  E  E  E  E      E  E  E  E  E  E  E  E    
D|---------------------------|---------------------------|
A|---------------------------|---------------------------|
F|---------------------------|---------------------------|
C|--6--x--x--x--8--x--x--5S--|--6--x--x--x--8--x--x--5S--|
G|--6--x--x--x--8--x--x--5S--|--6--x--x--x--8--x--x--5S--|
D|--6--0--0--0--8--0--0--5S--|--6--0--0--0--8--0--0--5S--|


       PM PM PM    PM PM           PM PM PM    PM PM      
    E  E  E  E  E  E  E  E      E  E  E  E  E  E  E  E    
D|---------------------------|---------------------------|
A|---------------------------|---------------------------|
F|---------------------------|---------------------------|
C|--6--x--x--x--8--x--x--5S--|--6--x--x--x--8--x--x--5S--|
G|--6--x--x--x--8--x--x--5S--|--6--x--x--x--8--x--x--5S--|
D|--6--0--0--0--8--0--0--5S--|--6--0--0--0--8--0--0--5S--|


       PM PM PM    PM PM           PM PM PM    PM PM      
    E  E  E  E  E  E  E  E      E  E  E  E  E  E  E  E    
D|---------------------------|---------------------------|
A|---------------------------|---------------------------|
F|---------------------------|---------------------------|
C|--6--x--x--x--8--x--x--5S--|--6--x--x--x--8--x--x--5S--|
G|--6--x--x--x--8--x--x--5S--|--6--x--x--x--8--x--x--5S--|
D|--6--0--0--0--8--0--0--5S--|--6--0--0--0--8--0--0--5S--|


       PM PM PM    PM PM           PM PM PM    PM PM      
    E  E  E  E  E  E  E  E      E  E  E  E  E  E  E  E    
D|---------------------------|---------------------------|
A|---------------------------|---------------------------|
F|---------------------------|---------------------------|
C|--6--x--x--x--8--x--x--5S--|--6--x--x--x--8--x--x--5S--|
G|--6--x--x--x--8--x--x--5S--|--6--x--x--x--8--x--x--5S--|
D|--6--0--0--0--8--0--0--5S--|--6--0--0--0--8--0--0--5S--|


       PM PM PM                                                    
    E  E  E  E  S S S S S S S S    S S S S S S S S S S S S S E  S  
D|------------------------------|---------------------------------|
A|------------------------------|---------------------------------|
F|------------------------------|---------------------------------|
C|--6--x--x--x------------------|---------------------------------|
G|--6--x--x--x------------------|--------------------------1----0-|
D|--6--0--0--0--0-0-0-0-0-0-0-0-|--0-3-0-0-5-0-0-0-0-0-0-0---5----|


    E  S S S S S S S S S S S S S S    S S S S S E  S E  E  S S S S  
D|---------------------------------|-------------------------------|
A|---------------------------------|-------------------------------|
F|---------------------------------|-------------------------------|
C|---------------------------------|-------------------------------|
G|---------------------------------|-----------------5-------------|
D|--3--0-0-0-0-0-0-0-0-6-0-0-5-0-0-|--0-0-0-0-0-3-------3--0-0-0-0-|


    S S S S S S S S S S S S S S S S    S E  S E  S S S S S S S S S S  
D|----------------------------------|--------------------------------|
A|----------------------------------|--------------------------------|
F|----------------------------------|--------------------------------|
C|----------------------------------|--------------------------------|
G|----------------------------------|--1----0------------------------|
D|--0-0-0-0-0-3-0-0-5-0-0-0-0-0-0-0-|----5----3--0-0-0-0-0-0-0-0-6-0-|


    S S S S S S S S S E  S E  E     S S S S S S S S S S S S S S S S  
D|-------------------------------|----------------------------------|
A|-------------------------------|----------------------------------|
F|-------------------------------|----------------------------------|
C|-------------------------------|----------------------------------|
G|-------------------------5-----|----------------------------------|
D|--0-5-0-0-0-0-0-0-0-3-------3--|--0-0-0-0-0-0-0-0-0-3-0-0-5-0-0-0-|


    S S S S S E  S E  S S S S S S    S S S S S S S S S S S S S E  S  
D|--------------------------------|---------------------------------|
A|--------------------------------|---------------------------------|
F|--------------------------------|---------------------------------|
C|--------------------------------|---------------------------------|
G|----------1----0----------------|---------------------------------|
D|--0-0-0-0---5----3--0-0-0-0-0-0-|--0-0-6-0-0-5-0-0-0-0-0-0-0-3----|


    E  E  S S S S S S S S S S S S    S S S S S S S S S E  S E  S S  
D|--------------------------------|--------------------------------|
A|--------------------------------|--------------------------------|
F|--------------------------------|--------------------------------|
C|--------------------------------|--------------------------------|
G|--5-----------------------------|------------------1----0--------|
D|-----3--0-0-0-0-0-0-0-0-0-3-0-0-|--5-0-0-0-0-0-0-0---5----3--0-0-|


    S S S S S S S S S S S S S S S S    S E  S E  E  S S S S S S S S  
D|----------------------------------|-------------------------------|
A|----------------------------------|-------------------------------|
F|----------------------------------|-------------------------------|
C|----------------------------------|-------------------------------|
G|----------------------------------|---------5---------------------|
D|--0-0-0-0-0-0-6-0-0-5-0-0-0-0-0-0-|--0-3-------3--0-0-0-0-0-0-0-0-|


    S S S S S S S S S S S S S E  S    E  S S S S S S S S S S S S S S  
D|---------------------------------|---------------------------------|
A|---------------------------------|---------------------------------|
F|---------------------------------|---------------------------------|
C|---------------------------------|---------------------------------|
G|--------------------------1----0-|---------------------------------|
D|--0-3-0-0-5-0-0-0-0-0-0-0---5----|--3--0-0-0-0-0-0-0-0-6-0-0-5-0-0-|


    S S S S E  S E  E  S S S S S    S S S S S S S S S S S S S S S S  
D|-------------------------------|----------------------------------|
A|-------------------------------|----------------------------------|
F|-------------------------------|----------------------------------|
C|-------------------------------|----------------------------------|
G|---------------5---------------|--------------------------------1-|
D|--0-0-0-0-3-------3--0-0-0-0-0-|--0-0-0-0-3-0-0-5-0-0-0-0-0-0-0---|


    E  S E  S S S S S S S S S S S    S S S S S S S S E  S E  E  S  
D|--------------------------------|-------------------------------|
A|--------------------------------|-------------------------------|
F|--------------------------------|-------------------------------|
C|--------------------------------|--------------------------0----|
G|-----0--------------------------|----------------1----0----0----|
D|--5----3--0-0-0-0-0-0-0-0-6-0-0-|--5-0-0-0-0-0-0---5----3--0--0-|


    S S S S S E  S S E   E  S S S    S S S S S S S S S E   E  S S S  
D|--------------------------------|---------------------------------|
A|--------------------------------|---------------------------------|
F|--------------------------------|---------------------------------|
C|------------3------6S--5--------|--------------------4S--3--------|
G|------------3------6S--5--------|--------------------2S--1--------|
D|--0-0-0-0-0-3--0-0-6S--5--0-0-0-|--0-0-0-0-0-0-0-0-0--------0-0-0-|


                                                    PM PM PM        
    S S S S S S S S S E   E  S S S    S S S S S S S E  E  E  S S S  
D|---------------------------------|-------------------------------|
A|---------------------------------|-------------------------------|
F|---------------------------------|-------------------------------|
C|--------------------6S--5------3-|--------1-------x--x--x--------|
G|--------------------4S--3------3-|--------1-------x--x--x--------|
D|--0-0-0-0-0-0-0-0-0--------0-0-3-|----0-0-1---0-0-2--1--0--0-0-0-|


    S S S S S S S S S E   E  S S S    S S S S S S S S S E   E  S S S  
D|---------------------------------|---------------------------------|
A|---------------------------------|---------------------------------|
F|---------------------------------|---------------------------------|
C|--------------------6S--5--------|--------------------4S--3--------|
G|--------------------6S--5--------|--------------------2S--1--------|
D|--0-0-0-0-0-0-0-0-0-6S--5--0-0-0-|--0-0-0-0-0-0-0-0-0--------0-0-0-|


                                                    PM PM PM        
    S S S S S S S S S E   E  S S S    S S S S S S S E  E  E  S S S  
D|---------------------------------|-------------------------------|
A|---------------------------------|-------------------------------|
F|---------------------------------|-------------------------------|
C|--------------------6S--5------3-|--------1-------x--x--x--------|
G|--------------------4S--3------3-|--------1-------x--x--x--------|
D|--0-0-0-0-0-0-0-0-0--------0-0-3-|----0-0-1---0-0-2--1--0--0-0-0-|


    S S S S S S S S S E   E  S S S    S S S S S S S S S E   E  S S S  
D|---------------------------------|---------------------------------|
A|---------------------------------|---------------------------------|
F|---------------------------------|---------------------------------|
C|--------------------6S--5--------|--------------------4S--3--------|
G|--------------------6S--5--------|--------------------2S--1--------|
D|--0-0-0-0-0-0-0-0-0-6S--5--0-0-0-|--0-0-0-0-0-0-0-0-0--------0-0-0-|


                                                    PM PM PM        
    S S S S S S S S S E   E  S S S    S S S S S S S E  E  E  S S S  
D|---------------------------------|-------------------------------|
A|---------------------------------|-------------------------------|
F|---------------------------------|-------------------------------|
C|--------------------6S--5------3-|--------1-------x--x--x--------|
G|--------------------4S--3------3-|--------1-------x--x--x--------|
D|--0-0-0-0-0-0-0-0-0--------0-0-3-|----0-0-1---0-0-2--1--0--0-0-0-|


    S S S S S S S S S E   E  S S S    S S S S S S S S S E   E  S S S  
D|---------------------------------|---------------------------------|
A|---------------------------------|---------------------------------|
F|---------------------------------|---------------------------------|
C|--------------------6S--5--------|--------------------4S--3--------|
G|--------------------6S--5--------|--------------------2S--1--------|
D|--0-0-0-0-0-0-0-0-0-6S--5--0-0-0-|--0-0-0-0-0-0-0-0-0--------0-0-0-|


                                                    PM PM PM        
    S S S S S S S S S E   E  S S S    S S S S S S S E  E  E  S S S  
D|---------------------------------|-------------------------------|
A|---------------------------------|-------------------------------|
F|---------------------------------|-------------------------------|
C|--------------------6S--5------3-|--------1-------x--x--x--------|
G|--------------------4S--3------3-|--------1-------x--x--x--------|
D|--0-0-0-0-0-0-0-0-0--------0-0-3-|----0-0-1---0-0-2--1--0--0-0-0-|


    S S S S S S S S S E   E  S S S    S S S S S S S S S E   E  S S S  
D|---------------------------------|---------------------------------|
A|---------------------------------|---------------------------------|
F|---------------------------------|---------------------------------|
C|--------------------6S--5--------|--------------------4S--3--------|
G|--------------------6S--5--------|--------------------2S--1--------|
D|--0-0---0-0-0-0-0---6S--5--0-0-0-|--0-0---0-0-0-0-0----------0-0-0-|


                                                    PM PM PM        
    S S S S S S S S E   E  S S S S    S S S S S S S E  E  E  S S S  
D|---------------------------------|-------------------------------|
A|---------------------------------|-------------------------------|
F|---------------------------------|-------------------------------|
C|------------------6S--5------3---|--------1-------x--x--x--------|
G|------------------4S--3------3---|--------1-------x--x--x--------|
D|--0-0---0-0-0-0-0--------0-0-3---|----0-0-1---0-0-2--1--0--0-0-0-|


    S S S S S S S S S E   E  S S S    S S S S S S S S S E   E  S S S  
D|---------------------------------|---------------------------------|
A|---------------------------------|---------------------------------|
F|---------------------------------|---------------------------------|
C|--------------------6S--5--------|--------------------4S--3--------|
G|--------------------6S--5--------|--------------------2S--1--------|
D|--0-0---0-0-0-0-0---6S--5--0-0-0-|--0-0---0-0-0-0-0----------0-0-0-|


                                                    PM PM PM        
    S S S S S S S S E   E  S S S S    S S S S S S S E  E  E  S S S  
D|---------------------------------|-------------------------------|
A|---------------------------------|-------------------------------|
F|---------------------------------|-------------------------------|
C|------------------6S--5------3---|--------1-------x--x--x--------|
G|------------------4S--3------3---|--------1-------x--x--x--------|
D|--0-0---0-0-0-0-0--------0-0-3---|----0-0-1---0-0-2--1--0--0-0-0-|


    S S S S S S S S S E   E  S S S    S S S S S S S S S E   E  S S S  
D|---------------------------------|---------------------------------|
A|---------------------------------|---------------------------------|
F|---------------------------------|---------------------------------|
C|--------------------6S--5--------|--------------------4S--3--------|
G|--------------------6S--5--------|--------------------2S--1--------|
D|--0-0---0-0-0-0-0---6S--5--0-0-0-|--0-0---0-0-0-0-0----------0-0-0-|


                                                    PM PM PM        
    S S S S S S S S E   E  S S S S    S S S S S S S E  E  E  S S S  
D|---------------------------------|-------------------------------|
A|---------------------------------|-------------------------------|
F|---------------------------------|-------------------------------|
C|------------------6S--5------3---|--------1-------x--x--x--------|
G|------------------4S--3------3---|--------1-------x--x--x--------|
D|--0-0---0-0-0-0-0--------0-0-3---|----0-0-1---0-0-2--1--0--0-0-0-|


    S S S S S S S S S E   E  S S S    S S S S S S S S S E   E  S S S  
D|---------------------------------|---------------------------------|
A|---------------------------------|---------------------------------|
F|---------------------------------|---------------------------------|
C|--------------------6S--5--------|--------------------4S--3--------|
G|--------------------6S--5--------|--------------------2S--1--------|
D|--0-0---0-0-0-0-0---6S--5--0-0-0-|--0-0---0-0-0-0-0----------0-0-0-|


                                                    PM PM PM        
    S S S S S S S S E   E  S S S S    S S S S S S S E  E  E  S S S  
D|---------------------------------|-------------------------------|
A|---------------------------------|-------------------------------|
F|---------------------------------|-------------------------------|
C|------------------6S--5------3---|--------1-------x--x--x--------|
G|------------------4S--3------3---|--------1-------x--x--x--------|
D|--0-0---0-0-0-0-0--------0-0-3---|----0-0-1---0-0-2--1--0--0-0-0-|


    S S S S S S S S S E   E  S S S    S S S S S S S S S E   E  S S S  
D|---------------------------------|---------------------------------|
A|---------------------------------|---------------------------------|
F|---------------------------------|---------------------------------|
C|--------------------6S--5--------|--------------------4S--3--------|
G|--------------------6S--5--------|--------------------2S--1--------|
D|--0-0---0-0-0-0-0---6S--5--0-0-0-|--0-0---0-0-0-0-0----------0-0-0-|


                                                    PM PM PM         
    S S S S S S S S E   E  S S S S    S S S S S S S E  E  E          
D|---------------------------------|-------------------------|-----||
A|---------------------------------|-------------------------|-----||
F|---------------------------------|-------------------------|-----||
C|------------------6S--5------3---|--------1-------x--x--x--|-----||
G|------------------4S--3------3---|--------1-------x--x--x--|-----||
D|--0-0---0-0-0-0-0--------0-0-3---|----0-0-1---0-0-2--1--0--|-----||



************************************

| x   Dead note
| PM  Palm mute
 

************************************

            
            
Suggest correction
Creating personal tab
Creating personal tab
You can edit any tab online and save it as your Personal.

You can edit, replace or remove any tab part or add personal notes – all changes will be seen only by you.

Personal tabs can be accessed anytime from any device, even offline.
Learn more »
Give kudos to tab author, rate the tab!
1 2 3 4 5
comments
print report bad tab
guest
You may want to rate the tab now too:
select rating
Wanna post a correction for this tab? Suggest correction