Oops, an error
Loading. Please wait.

O Poeta Esta Vivo Bass Tab

version 2
version 2

Whole song

210 views 1 this week
no commentswrite comment
1 2 3 4 5
please rate
add to favorites
launch autoscroll
font size
0
reset
guitar tuner
Autoscroll
slow
fast
+/-
esc
set tempo
stop
Help us to improve Ultimate-Guitar.com Take our survey!
×
Tabbed by Matt Rodrigues

G|----------------------------|
D|----------------------------|
A|---3/5~---3/5~---3/5~---3~~-|
E|----------------------------|

G|------------------------------------------------------|2x
D|------------------------------------------------------|2x
A|---5~-5~-55-5/3-----------------------------5~-555-5--|2x
E|-----------------1~~-1-1-1/3--3~-3~-33-3h6------------|2x

G|-----------------------------||-----------------------------------|
D|o---------------------------o||-----------------------------------|
A|o--1~-11-3~-33-3h5-5-5-55-5-o||---6~-5~-6b~-5-5~--1~-11-3~-33-5~~-|
E|-----------------------------||-----------------------------------|

G|--------------|
D|--------------|
A|---3/5~---3~~-|
E|--------------|

G|------------------------------------------------------|2x
D|------------------------------------------------------|2x
A|---5~-5~-55-5/3-----------------------------5~-555-5--|2x
E|-----------------1~~-1-1-1/3--3~-3~-33-3h6------------|2x

G|-----------------------------||------------------------------------|
D|o---------------------------o||o----------------------------------o|
A|o--1~-11-3~-33-3h5-5-5-55-5-o||o--6~-5~-6b~-5-5~--1~-11-3~-33-5~~-o|
E|-----------------------------||------------------------------------|

G|---------------------|
D|---------------------|
A|---3/5~---3/5~---3~~-|
E|---------------------|

G|------------------------------------------------------|2x
D|------------------------------------------------------|2x
A|---5~-5~-55-5/3-----------------------------5~-555-5--|2x
E|-----------------1~~-1-1-1/3--3~-3~-33-3h6------------|2x

G|-----------------------------||------------------------------------|
D|o---------------------------o||o----------------------------------o|
A|o--1~-11-3~-33-3h5-5-5-55-5-o||o--6~-5~-6b~-5-5~--1~-11-3~-33-5~~-o|
E|-----------------------------||------------------------------------|

G|-----------------------------|
D|-----------------------------|
A|---3/5~---3/5~---3/5~---3/5~-|
E|-----------------------------|
Suggest correction
Give kudos to tab author, rate the tab!
1 2 3 4 5
comments
print report bad tab
guest
You may want to rate the tab now too:
select rating
Wanna post a correction for this tab? Suggest correction