Oops, an error
Loading. Please wait.

Dance bass

231 views 1 this week
no commentswrite comment
1 2 3 4 5
3 more votes to show rating
add to favorites
×
Save as Personal and add changes to this tab that will be seen only by you. Learn more ›
×
You can save this tab as Personal to edit and correct it or add notes. All changes will be seen only by you. Learn more »
launch autoscroll
font size
0
reset
guitar tuner
edit
Autoscroll
slow
fast
+/-
esc
set tempo
stop
Author
Difficulty
Title: THE DANCE
Artist: Barbie's Cradle
Tabbed by: Judd Romano
email: nirv_Freak15@yahoo.com

This is one of my favorite songs of Barbie's Cradle. Dedicated to my bandmates Diane, 
and Otik. Hope I don't have any mistakes. thanks..

enjoy!!!

INTRO: (guitar only)

Verse:
B-A-G
|-----------------------------------------------|
|-----------------------------------------------|
|---2---2-2-------------------------------------|
|-------------5---5-5---3---3-3---5---5-5-------| (2x)

would you be interested in dancing with me...

E-A
|---------------------------------------|
|---------------------------------------|
|--7--7--0--0--7--7--0--0---------------|
|---------------------------------------| (2x)

B-A-G
|-----------------------------------------------|
|-----------------------------------------------|
|---2---2-2-------------------------------------|
|-------------5---5-5---3---3-3---5---5-5-------| (2x)

E-A
|---------------------------------------|
|---------------------------------------|
|--7--7--0--0--7--7--0--0---------------|
|---------------------------------------| (2x)

CHORUS:

D-G
|------------------------------------------------|
|------------------------------------------------|
|--5---5-5---------------0-5---5-5---------------|
|------------0-3---3-3---------------0-3---3-3---|

F#-G
|-------------------------------------------------------------|
|-------------------------------------------------------------|
|-------------------------------------------------------------|
|--0-2---2-2---0-3---3-3---0-2---2-2---0-3---3-3--------------|

|------------------------------------------------|
|------------------------------------------------|
|--5---5-5---------------0-5---5-5---------------|
|------------0-3---3-3---------------0-3---3-3---|

|------------------------------------------|
|------------------------------------------|
|---------------------------------2--------|
|--0-2---2-2---0-3---3-3---0-5-------------|

.....................alone and free..


VERSE 2:
Same as first verse.

ADLIB:
Same as verse.


CHORUS:

although basically the same, it has little variations..
|------------------------------------------------------|
|------5h7p5-------5-----------------------------------|
|--5---------7-5h7-------------0-5---5-5---------------|
|--------------------3---3-3---------------0-3---3-3---|

|-------------------------------------------------------------|
|-------------------------------------------------------------|
|-------------------------------------------------------------|
|--0-2---2-2---0-3---3-3---0-2---2-2---0-3---3-3--------------|

|------------------------------------------------------|
|------5h7p5-------5-----------------------------------|
|--5---------7-5h7-------------0-5---5-5---------------|
|--------------------3---3-3---------------0-3---3-3---|

|------------------------------------------|
|------------------------------------------|
|---------------------------------2--------|
|--0-2---2-2---0-3---3-3---0-5-------------|

.....................alone and free..

|-----------------------------------------------|
|-----------------------------------------------|
|---2---2-2-------------------------------------|
|-------------5---5-5---3---3-3---5---5-5-------|

alone and free............ (repeat this pattern 4x)

Ends in B



for your comments and suggestions: 09214705163

            
            
Suggest correction
Creating personal tab
Creating personal tab
You can edit any tab online and save it as your Personal.

You can edit, replace or remove any tab part or add personal notes – all changes will be seen only by you.

Personal tabs can be accessed anytime from any device, even offline.
Learn more »
Give kudos to tab author, rate the tab!
1 2 3 4 5
comments
print report bad tab
guest
You may want to rate the tab now too:
select rating
Wanna post a correction for this tab? Suggest correction