Oops, an error
Loading. Please wait.

Tabing Ilog chords

version 10
64 views 6 this week
no commentswrite comment
1 2 3 4 5
3 more votes to show rating
add to favorites
×
Save as Personal and add changes to this tab that will be seen only by you. Learn more ›
×
You can save this tab as Personal to edit and correct it or add notes. All changes will be seen only by you. Learn more »
launch autoscroll
font size
0
reset
transpose
0
reset
simplify chords
display chords
guitar tuner
edit
Autoscroll
slow
fast
+/-
esc
set tempo
stop
Strumming
There is no strumming pattern for this song yet. and get +5 IQ
Chords
     Asus2       Bsus4      F#m7    E          C#5    
e|---0----0------0----0------0------0----0------0---|
B|---0----0------0----0------0------0----0------0---|
G|---9-or-2------9-or-4------2------1-or-9------6---|
D|---9----2------9----4------2------2----9------6---|
A|---0----0------x----2------x------2----7------4---|
E|---x-----------7-----------2------0---------------|

[Intro] and [Verse]
Bass+Strumming
    Asus2    E      E    Bsus4 
e|-----0-----0------0------0------|
B|-----0-----0------0------0------|
G|-----9-----9------9------9------|
D|-----9-----9------9------9------|
A|--0-----7---------x------x------|
E|---------------0------7---------|

   Asus2   E                   E  Bsus4
e|----0----0-------------------0----0-------|
B|----0----0-------------------0----0-------|
G|----9----9-------------------9----9-------|
D|----9----9-------------------9----9-------|
A|--0----7---------------------x----x-------|
E|---------------------------0----7---------|
 Sa ilog     ang mundo'y  tahimik   
              Asus2 E                E    Bsus4 
 Ako'y nakikinig         sa awit ng hangin
 Asus2  E                E Bsus4
 Habang   kayo'y hinihintay
               Asus2 E                 E Bsus4
Na sana'y dumating       bago magdilim 

      Asus2 E                     E   Bsus4
Sa tuwina'y    kandungan niyo ay duyan
     Asus2 E                       E Bsus4
Panaginip      na walang katapusan
    Asus2 E                      E   Bsus4
Ang ilog    hantungan niya'y pangako 
                  Asus2
Ng inyong pagbabalik

   Asus2  
e|---0---|
B|---0---|
G|---2---|
D|---2---|
A|---0---|
E|-------|

[Chorus]
    F#m7    E     C#5   Asus2  Bsus4
e|---0------0------0------0------0---|
B|---0------0------0------0------0---|
G|---2------1------6------2------4---|
D|---2------2------6------2------4---|
A|---x------2------4------0------2---|
E|---2------0------------------------|

     F#m7    E         C#5
 Ngiting  kasama ng hangin 
         Asus2      F#m7 
 Luhang daloy ng tubig 
         Bsus4
 Sa ilog na    `di naglilihim 

 Asus2-E-E-Bsus4 2x

[Verse2]
   Asus2 E                   E   Bsus4
Sa ilog     ang mundo'y may himig
                 Asus2 E              E    Bsus4
`Di sanang nagpalit      ang awit ng hangin 
 Asus2 E                E Bsus4
Habang   kayo'y hinihintay 
               Asus2 E               E Bsus4
Mata'y may ngiti,      puso'y nananabik

      Asus2 E                     E   Bsus4
Sa tuwina'y    kandungan niyo ay duyan
     Asus2 E                       E Bsus4
Panaginip      na walang katapusan
    Asus2 E                     E   Bsus4
Ang ilog    hantungan niya'y pangako 
                  Asus2
Ng inyong pagbabalik

[Chorus]
     F#m7    E         C#5
 Ngiting  kasama ng hangin 
         Asus2      F#m7 
 Luhang daloy ng tubig 
         Bsus4
 Sa ilog na    `di naglilihim 

 Asus2-E-E-Bsus4 2x

[Outro]
C#5-Bsus4-Asus2

            
            
Suggest correction
Creating personal tab
Creating personal tab
You can edit any tab online and save it as your Personal.

You can edit, replace or remove any tab part or add personal notes – all changes will be seen only by you.

Personal tabs can be accessed anytime from any device, even offline.
Learn more »
Give kudos to tab author, rate the tab!
1 2 3 4 5
comments
print report bad tab
guest
You may want to rate the tab now too:
select rating
Wanna post a correction for this tab? Suggest correction