Oops, an error
Loading. Please wait.

Alright Get Down Boogie Bass Tab

10 views 1 this week
no commentswrite comment
1 2 3 4 5
3 more votes to show rating
add to favorites
launch autoscroll
font size
0
reset
guitar tuner
Autoscroll
slow
fast
+/-
esc
set tempo
stop
Help us to improve Ultimate-Guitar.com Take our survey!
×
Author
Difficulty
novice
--------------------------------------------------------------------------
                          Artist - Barclay James Harvest
                        *********************************
                         Song - Alright Get Down Boogie
                        ********************************
                             Tabbed By - Ayreon77
                            **********************
--------------------------------------------------------------------------
Tuning = Standard             




INTRO
******
G|----------|----------|
D|----------|----------|
A|-7--7-7-7-|--------5-|
E|----------|-8--8-8---|X4


---------------------
00:14
VERSE 1
********
G|-------|-------|-------|-------|-------|-------|-------|-------|
D|-------|-------|-------|-------|-------|-------|-------|-------|
A|-7---7-|-------|-3---5-|-7---7-|-7---7-|-------|-3---5-|-7---7-|
E|-------|-5---5-|-------|-------|-------|-5---5-|-------|-------|


G|-------|-------|-------|-------|-------|-------|-------|-------|
D|-------|-------|-------|-------|-------|-------|-------|-------|
A|-7---7-|-------|-3---5-|-7---7-|-7---7-|-------|-3---5-|-7---7-|
E|-------|-5---5-|-------|-------|-------|-5---5-|-------|-------|

00:41
G|--------------|-------------|-------------|-------------|
D|--------------|-------------|-------------|-------------|
A|-3---3------3-|-5---5-----5-|-7---7-----5-|-7---7-----5-|
E|--------3-5---|-------5-7---|-------5-7---|-------5-7---|

00:48
G|--------------|---------------|
D|--------------|---------------|
A|-3---3------3-|-5---5-----5---|
E|--------3-5---|-------5-7---5-|


---------------------
00:55
BREAK
******
G|----------|----------|
D|----------|----------|
A|--------2-|--------5-|
E|-0--0-3---|-8--8-8---|X2


---------------------
01:02
VERSE 2
********
G|-------|-------|-------|-------|-------|-------|-------|-------|
D|-------|-------|-------|-------|-------|-------|-------|-------|
A|-7---7-|-------|-3---5-|-7---7-|-7---7-|-------|-3---5-|-7---7-|
E|-------|-5---5-|-------|-------|-------|-5---5-|-------|-------|


G|-------|-------|-------|-------|-------|-------|-------|-------|
D|-------|-------|-------|-------|-------|-------|-------|-------|
A|-7---7-|-------|-3---5-|-7---7-|-7---7-|-------|-3---5-|-7---7-|
E|-------|-5---5-|-------|-------|-------|-5---5-|-------|-------|

01:29
G|--------------|-------------|-------------|-------------|
D|--------------|-------------|-------------|-------------|
A|-3---3------3-|-5---5-----5-|-7---7-----5-|-7---7-----5-|
E|--------3-5---|-------5-7---|-------5-7---|-------5-7---|

01:36
G|--------------|---------------|
D|--------------|---------------|
A|-3---3------3-|-5---5-----5---|
E|--------3-5---|-------5-7---5-|


---------------------
01:43
SOLO
*****
G|-------|-------|-------|-------|-------|-------|-------|-------|
D|-------|-------|-------|-------|-------|-------|-------|-------|
A|-7---7-|-------|-3---5-|-7---7-|-7---7-|-------|-3---5-|-7---7-|
E|-------|-5---5-|-------|-------|-------|-5---5-|-------|-------|


G|--------------|-------------|-------------|-------------|
D|--------------|-------------|-------------|-------------|
A|-3---3------3-|-5---5-----5-|-7---7-----5-|-7---7-----5-|
E|--------3-5---|-------5-7---|-------5-7---|-------5-7---|


G|--------------|---------------|
D|--------------|---------------|
A|-3---3------3-|-5---5-----5---|
E|--------3-5---|-------5-7---5-|


---------------------
02:17
BREAK
******
G|-------------|----------|
D|-------------|----------|
A|--s--------2-|--------5-|
E|-7\-0--0-3---|-8--8-8---|X2


---------------------
02:10
VERSE 3
********
G|-------|-------|-------|-------|-------|-------|-------|-------|
D|-------|-------|-------|-------|-------|-------|-------|-------|
A|-7---7-|-------|-3---5-|-7---7-|-7---7-|-------|-3---5-|-7---7-|
E|-------|-5---5-|-------|-------|-------|-5---5-|-------|-------|


G|-------|-------|-------|-------|-------|-------|-------|-------|
D|-------|-------|-------|-------|-------|-------|-------|-------|
A|-7---7-|-------|-3---5-|-7---7-|-7---7-|-------|-3---5-|-7---7-|
E|-------|-5---5-|-------|-------|-------|-5---5-|-------|-------|

02:46
G|--------------|-------------|-------------|-------------|
D|--------------|-------------|-------------|-------------|
A|-3---3------3-|-5---5-----5-|-7---7-----5-|-7---7-----5-|
E|--------3-5---|-------5-7---|-------5-7---|-------5-7---|

02:52
G|--------------|---------------|
D|--------------|---------------|
A|-3---3------3-|-5---5-----5---|
E|--------3-5---|-------5-7---5-|


---------------------
BREAK
******
G|-------------|----------|
D|-------------|----------|
A|--s--------2-|--------5-|
E|-7\-0--0-3---|-8--8-8---|X16


               Fade Out...........



ENJOY...........


Suggest correction
Give kudos to tab author, rate the tab!
1 2 3 4 5
comments
print report bad tab
guest
You may want to rate the tab now too:
select rating
Wanna post a correction for this tab? Suggest correction