Oops, an error
Loading. Please wait.

Child Of The Universe Tab

version 1
version 1

Solo

Interactive

28 views 1 this week
no commentswrite comment
1 2 3 4 5
2 more votes to show rating
add to favorites
launch autoscroll
font size
0
reset
how to read this tab
guitar tuner
Autoscroll
slow
fast
+/-
esc
set tempo
stop
Help us to improve Ultimate-Guitar.com Take our survey!
×
Author
Tuning
E A D G B E
------------------------------------------------------------------------------------------------------------
                                          Artist - Barclay James Harvest 
                                         ********************************
                                          Song - Child Of The Universe
                                         ******************************
                                        Album - Live Tapes (LIVE) (1978)     
                                       **********************************
                                              Tabbed By - Ayreon77
                                             **********************
------------------------------------------------------------------------------------------------------------
Tuning = Standard


05:53
e|-------------------------12-13-12----------------|
B|----------12-13-12-13-15----------15-13-15-13-12-|
G|-14-12-14----------------------------------------|
D|-------------------------------------------------|
A|-------------------------------------------------|
E|-------------------------------------------------|


e|----------------------------12-------------------|
B|-------------12----12-13-15----15-13-12-13-12----|
G|-12-11-12-14----14----------------------------14-|
D|-------------------------------------------------|
A|-------------------------------------------------|
E|-------------------------------------------------|


e|-------------------------12-13-12----------------|
B|----------12-13-12-13-15----------15-13-15-13-12-|
G|-14-12-14----------------------------------------|
D|-------------------------------------------------|
A|-------------------------------------------------|
E|-------------------------------------------------|


e|----------------------------12----------|
B|-------------12----12-13-15----15-13-12-|
G|-12-11-12-14----14----------------------|
D|----------------------------------------|
A|----------------------------------------|
E|----------------------------------------|

06:08
   UB  UB   UB                       UB UB UB UB   UB UB UB UB
e|-12--12---12--rb----|-----br-------12-12-12-12-|-12-12-12-12---rb----|
B|-15--15---15-15--15-|----15--13-15-15-15-15-15-|-15-15-15-15--15--15-|
G|--------------------|-12-----------------------|---------------------|
D|--------------------|--------------------------|---------------------|
A|--------------------|--------------------------|---------------------|
E|--------------------|--------------------------|---------------------|


rb  = Release Bend
br  = Bend Release
UB  = Union Bend


ENJOY.........
Suggest correction
Give kudos to tab author, rate the tab!
1 2 3 4 5
comments
print report bad tab
guest
You may want to rate the tab now too:
select rating
Wanna post a correction for this tab? Suggest correction