Oops, an error
Loading. Please wait.

Jonathan Bass Tab

version 1
version 1

Whole song

Interactive

7 views 1 this week
no commentswrite comment
1 2 3 4 5
3 more votes to show rating
add to favorites
launch autoscroll
font size
0
reset
guitar tuner
Autoscroll
slow
fast
+/-
esc
set tempo
stop
Help us to improve Ultimate-Guitar.com Take our survey!
×
Author
Difficulty
novice
--------------------------------------------------------------------------
                            Artist - Barclay James Harvest
                          *********************************
                                 Song - Jonathan
                                *****************
                           Album - Time Honoured Ghosts
                          ******************************
                               Tabbed By - Ayreon77
                              **********************
--------------------------------------------------------------------------
Tuning = Standard             


00:42
VERSE 2
********
G|---------------------------------------------------|---------|---------|
D|---------------------------------------------------|---------|---------|
A|--s-5---5-5---5-5---5-5---5-5---5-5-------5--5-3-2-|-3-2-0---|-5-3-2-0-|
E|-3\-----------------------------------5------------|-------3-|---------|


-------------------------
01:21
CHORUS
*******
G|------------7------|-------------------|----7---------|
D|---------------7---|----7--------7-----|-------7------|
A|---------5-------5-|-------7-------7---|-5-------5--5-|
E|-3---5-------------|-5-------5-5-----5-|--------------|

01:36
G|-----------------|-----------------|-------------------|
D|------------0--s-|------------0--s-|------------0--0---|
A|------0-2-3---5\-|------0-2-3---5\-|------0-2-3------3-|
E|-3--3------------|-3--3------------|-3--3--------------|


-------------------------
01:51
BREAK
******
G|-------|------------------|-------------------|----------|------------|
D|---0-2-|---2--2---2-3-----|--------7--7-------|---5------|------------|
A|-3-----|-2------2---------|------7------7-----|-5--------|---2--2---0-|
E|-------|--------------0-0-|-3-5-----------5-3-|------5-7-|-2------2---|

02:15
G|-----------------|
D|---7-------------|
A|-7------3---s----|
E|------3----8\--0-|


-------------------------
02:41
BRIDGE
*******
G|-------|----------|---------|
D|-------|----------|-5-5-----|
A|---0-2-|-0--------|-----5---|
E|-3-----|-----4--3-|-------3-|


-------------------------
02:57
CHORUS
*******
G|------------7------|-------------------|----7---------|
D|---------------7---|----7--------7-----|-------7------|
A|---------5-------5-|-------7-------7---|-5-------5--5-|
E|-3---5-------------|-5-------5-5-----5-|--------------|

03:13
G|-----------------|-----------------|-------------------|
D|------------0--s-|------------0--s-|------------0--0---|
A|------0-2-3---5\-|------0-2-3---5\-|------0-2-3--------|
E|-3--3------------|-3--3------------|-3--3------------5-|


-------------------------
03:29
OUTRO
******
G|------------------|
D|------------------|
A|-5----3-----------|
E|----5----5-7--4-6-|



ENJOY............
Suggest correction
Give kudos to tab author, rate the tab!
1 2 3 4 5
comments
print report bad tab
guest
You may want to rate the tab now too:
select rating
Wanna post a correction for this tab? Suggest correction