Oops, an error
Loading. Please wait.

Love On The Line Bass Tab

25 views 1 this week
no commentswrite comment
1 2 3 4 5
3 more votes to show rating
add to favorites
launch autoscroll
font size
0
reset
guitar tuner
Autoscroll
slow
fast
+/-
esc
set tempo
stop
Help us to improve Ultimate-Guitar.com Take our survey!
×
Author
Difficulty
novice
--------------------------------------------------------------------------
                          Artist - Barclay James Harvest
                        *********************************
                           Song - Love On The Line
                          *************************
                             Tabbed By - Ayreon77
                            **********************
--------------------------------------------------------------------------
Tuning = Standard             



00:15
INTRO
******
G|-----------|-----------|-----------|-----------|
D|-----------|-----------|-----------|-----------|
A|-2~~-2-0~~-|-----------|-2~~-2-0~~-|-----------|
E|-----------|-3~~-3-0~~-|-----------|-3~~-3-0~~-|


G|---------------|---------------|
D|---------------|---------------|
A|-2---2---2---2-|-2---2---2---2-|
E|---------------|---------------|


-----------------------
00:44
VERSE 1
********
G|---------------|---------------|---------------|---------------|
D|---------------|---------------|---------------|---------------|
A|-2---2---2---2-|-2---2---2---2-|-2---2---2---2-|-2---2---2---2-|
E|---------------|---------------|---------------|---------------|


-----------------------
01:03
CHORUS
*******
G|-----------------------------|-----------------------|
D|-------5-5---5-5---5-5---5-5-|---5-5---5-5---5-5-----|
A|-2-0-------------------------|---------------------0-|
E|-----3-----3-----3-----3-----|-3-----3-----3-----3---|

01:08
G|---------------|
D|---------------|
A|-2---2---2---2-|
E|---------------|


G|-----------------------------|--------------------------|
D|-------5-5---5-5---5-5---5-5-|---2-2---2-2---2-2--2-0---|
A|-2-0-------------------------|------------------------2-|
E|-----3-----3-----3-----3-----|-0-----0-----0------------|


-----------------------
01:18
BREAK
******
G|-----------|-----------|
D|-----------|-----------|
A|-2~~-2-0~~-|-----------|
E|-----------|-3~~-3-0~~-|


-----------------------
01:28
VERSE 2
********
G|---------------|---------------|---------------|---------------|
D|---------------|---------------|---------------|---------------|
A|-2---2---2---2-|-2---2---2---2-|-2---2---2---2-|-2---2---2---2-|
E|---------------|---------------|---------------|---------------|


-----------------------
01:46
CHORUS
*******
G|-----------------------------|-----------------------|
D|-------5-5---5-5---5-5---5-5-|---5-5---5-5---5-5-----|
A|-2-0-------------------------|---------------------0-|
E|-----3-----3-----3-----3-----|-3-----3-----3-----3---|

01:53
G|---------------|
D|---------------|
A|-2---2---2---2-|
E|---------------|


G|-----------------------------|--------------------------|
D|-------5-5---5-5---5-5---5-5-|---2-2---2-2---2-2--2-0---|
A|-2-0-------------------------|------------------------2-|
E|-----3-----3-----3-----3-----|-0-----0-----0------------|


-----------------------
02:02
BREAK
******
G|-----------|-----------|-----------|-----------|
D|-----------|-----------|-----------|-----------|
A|-2~~-2-0~~-|-----------|-2~~-2-0~~-|-----------|
E|-----------|-3~~-3-0~~-|-----------|-3~~-3-0~~-|


-----------------------
02:22
SOLO
*****
G|---------------|---------------|---------------|---------------|
D|---------------|---------------|---------------|---------------|
A|-2---2---2---2-|-2---2---2---2-|-2---2---2---2-|-2---2---2---2-|
E|---------------|---------------|---------------|---------------|


-----------------------
02:41
CHORUS
*******
G|-----------------------------|-----------------------|
D|-------5-5---5-5---5-5---5-5-|---5-5---5-5---5-5-----|
A|-2-0-------------------------|---------------------0-|
E|-----3-----3-----3-----3-----|-3-----3-----3-----3---|

02:46
G|---------------|
D|---------------|
A|-2---2---2---2-|
E|---------------|


G|-----------------------------|--------------------------|
D|-------5-5---5-5---5-5---5-5-|---2-2---2-2---2-2--2-0---|
A|-2-0-------------------------|------------------------2-|
E|-----3-----3-----3-----3-----|-0-----0-----0------------|


-----------------------
02:56
BREAK
******
G|-----------|-----------|-----------|-----------|
D|-----------|-----------|-----------|-----------|
A|-2~~-2-0~~-|-----------|-2~~-2-0~~-|-----------|
E|-----------|-3~~-3-0~~-|-----------|-3~~-3-0~~-|


-----------------------
03:15
SYNTH
******
G|-----------|-----------|-----------|-----------|
D|-----------|-----------|-----------|-----------|
A|-2~~-2-0~~-|-----------|-2~~-2-0~~-|-----------|
E|-----------|-3~~-3-0~~-|-----------|-3~~-3-0~~-|

      Repeat Above And Fade Out...............



ENJOY............
Suggest correction
Give kudos to tab author, rate the tab!
1 2 3 4 5
comments
print report bad tab
guest
You may want to rate the tab now too:
select rating
Wanna post a correction for this tab? Suggest correction