Oops, an error
Loading. Please wait.

Mockingbird Bass Tab

28 views 1 this week
no commentswrite comment
1 2 3 4 5
2 more votes to show rating
add to favorites
launch autoscroll
font size
0
reset
guitar tuner
Autoscroll
slow
fast
+/-
esc
set tempo
stop
Help us to improve Ultimate-Guitar.com Take our survey!
×
Author
Difficulty
Tuning
novice
E A D G B E
--------------------------------------------------------------------------
                            Artist - Barclay James Harvest
                          *********************************
                                 Song - Mocking Bird
                                *********************
                               Album - Once Again (1971)
                            **************************
                                Tabbed By - Ayreon77
                               **********************
--------------------------------------------------------------------------
Tuning = Standard             



INTRO
******
G|-------|-------|-------|-----|-------|-------|-------|-----|
D|-------|-------|-------|--s--|-------|-------|-------|--s--|
A|-7-6~~-|-6-3~~-|-3-2~~-|-2\7-|-7-6~~-|-6-3~~-|-3-2~~-|-2\7-|
E|-------|-------|-------|-----|-------|-------|-------|-----|


-------------------------
00:30
VERSE 1
********
G|-9---------|-7---------|-9---------|-7-----|
D|---9-------|---7-------|---9-------|---7---|
A|-----7-5~~-|-----5-7~~-|-----7-5~~-|-----5-|
E|-----------|-----------|-----------|-------|


-------------------------
00:45
CHORUS
*******
G|----------5------|--------9-----|---9----------------------|------------|
D|--------5----5---|--s-------9---|-9---9-------------5--5-5-|-5-6-7--7-7-|
A|-3--3-3--------3-|-5\7~~~-----7-|-------7-5-3--3-3---------|------------|
E|-----------------|--------------|--------------------------|------------|


G|-----|-9---------|-9---------|-5---------|-5-------|
D|--s--|---9-------|---9-------|---5-------|---5--s--|
A|-5\7-|-----7-6~~-|-----7-3~~-|-----3-2~~-|-----3\7-|
E|-----|-----------|-----------|-----------|---------|


-------------------------
01:13
VERSE 2
********
G|-9---------|-7---------|-9---------|-7-----|
D|---9-------|---7-------|---9-------|---7---|
A|-----7-5~~-|-----5-7~~-|-----7-5~~-|-----5-|
E|-----------|-----------|-----------|-------|


-------------------------
01:28
CHORUS
*******                           s
G|----------5----5---------|-----7\9--s----|---9----------------------|
D|--------5----5---5-------|---------7\9---|-9---9--------------------|
A|-3--3-3------------3-5-7-|-7-7---------7-|-------7-5-3--3-3---------|
E|-------------------------|---------------|-------------------3--3-3-|


G|------------|--------------------|
D|------------|--------------------|
A|------------|---5--5-5--5-5--5-5-|
E|-3-4-5--5-5-|-5------------------|


-------------------------
01:45
TRUMPET
********
G|----------|----------|----------|------------|
D|----------|----------|----------|------------|
A|----------|----------|----------|---5-5--5-5-|
E|-7-7--7-7-|-5-5--5-5-|-5-5--5-5-|-5----------|


G|----------|----------|----------|------------|----------|-----|
D|----------|----------|----------|------------|----------|-----|
A|----------|----------|----------|---5-5--5-5-|-5-5--5-5-|-5-4-|
E|-0-0--0-0-|-5-5--5-5-|-5-5--5-5-|-5----------|----------|-----|


-------------------------
02:03
CHORUS
******* 
G|----------5--------5---------|------9---------9----------------------|
D|--------5---5----5---5-------|--------9-----9---9--------------------|
A|-3--3-3-------3--------3-5-7-|-7-7------7---------7-5-3--3-3---------|
E|-----------------------------|--------------------------------3--3-3-|


G|--------------|---------|
D|--------------|---------|
A|--------------|-5-6-7~~-|
E|-3-4-5--5-5-5-|---------|

02:19
G|-9---------|-9---------|-5---------|-5-------|
D|---9-------|---9-------|---5-------|---5--s--|
A|-----7-6~~-|-----7-3~~-|-----3-2~~-|-----3\7-|
E|-----------|-----------|-----------|---------|


-------------------------
02:31
VERSE 3
********
G|-9---------|-7---------|-9---------|-7-----|
D|---9-------|---7-------|---9-------|---7---|
A|-----7-5~~-|-----5-7~~-|-----7-5~~-|-----5-|
E|-----------|-----------|-----------|-------|


-------------------------
02:46
CHORUS
******* 
G|-----------5-------------|------9---------9----------------------|
D|---------5---------------|--------9-----9---9--------------------|
A|-3--3-3-------3-3--3-5-7-|-7-7------7---------7-5-3--3-3---------|
E|-------------------------|--------------------------------3--3-3-|


G|----------|-----|-9---------|-9---------|-5---------|-5-------|
D|----------|-----|---9-------|---9-------|---5-------|---5--s--|
A|--s-------|-5-7-|-----7-6~~-|-----7-3~~-|-----3-2~~-|-----3\7-|
E|-3\5~-5-5-|-----|-----------|-----------|-----------|---------|

03:17
G|-9---------|-9---------|-5------------|-------|-------|-------|
D|---9-------|---9-------|---5----------|-------|-------|-------|
A|-----7-6~~-|-----7-3~~-|-----3-2--2-2-|-2-2-2-|-2-2-2-|-2-2-2-|
E|-----------|-----------|--------------|-------|-------|-------|

03:29
G|-----|-------|-------|-----|-------|-------|-------|
D|-----|-------|-------|-----|-------|-------|-------|
A|-7-7-|-7-7-7-|-7-7-7-|-6-6-|-6-6-6-|-6-6-6-|-6-6-6-|
E|-----|-------|-------|-----|-------|-------|-------|


G|-----|-------|-------|-------|-----|-------|-------|-------|
D|-----|-------|-------|-------|-----|-------|-------|-------|
A|-3-3-|-3-3-3-|-3-3-3-|-3-3-3-|-2-2-|-2-2-2-|-2-2-2-|-2-2-2-|
E|-----|-------|-------|-------|-----|-------|-------|-------|


G|-----|-------|-------|-----|-------|-------|-------|
D|-----|-------|-------|-----|-------|-------|-------|
A|-7-7-|-7-7-7-|-7-7-7-|-6-6-|-6-6-6-|-6-6-6-|-6-6-6-|
E|-----|-------|-------|-----|-------|-------|-------|


G|-----|-------|-------|-------|-----|-------|-------|-------|
D|-----|-------|-------|-------|-----|-------|-------|-------|
A|-3-3-|-3-3-3-|-3-3-3-|-3-3-3-|-2-2-|-2-2-2-|-2-2-2-|-2-2-2-|
E|-----|-------|-------|-------|-----|-------|-------|-------|


-------------------------
03:58
SOLO
*****
G|-------9----9-----9---|----------------------|----------------------|------------|--------------|
D|----9-----9-----9---9-|----------------------|----------------------|------------|--------------|
A|-7------------7-------|-7-----7----7---7---7-|-3-----3----3---3---3-|-2--2--2--2-|-2--2--2--2---|
E|----------------------|----7-----7---7---7---|----3-----3---3---3---|------------|--------------|X2


04:25
G|---------------------------------|---------------------------------|\
D|---9---9---9---9---9---9---9---9-|---8---8---8---8---8---8---8---8-| \
A|-7---7---7---7---7---7---7---7---|-6---6---6---6---6---6---6---6---|  \
E|---------------------------------|---------------------------------|   \
                                                                          |
                                                                          X4
G|-------------------------------|-----------------------------------|   /
D|---5---5---5---5---5---5---5---|---4---4---4---4---4---4---4---4---|  /  
A|-3---3---3---3---3---3---3---3-|-2---2---2---2---2---2---2---2---2-| /
E|-------------------------------|-----------------------------------|/

05:22
G|-----------|
D|-----------|
A|-2-------7-|Ad Lib
E|-----------|


-------------------------
05:43
TRUMPET
********
G|--------|--------|--------|----------|
D|--------|--------|--------|----------|
A|--------|--------|--------|---5--5-5-|
E|-7--7-7-|-5--5-5-|-5--5-5-|-5--------|


G|--------|--------|--------|----------|--------|-----|
D|--------|--------|--------|----------|--------|-----|
A|--------|--------|--------|---5--5-5-|-5--5-5-|-5-4-|
E|-0--0-0-|-5--5-5-|-5--5-5-|-5--------|--------|-----|


-------------------------
06:02
OUTRO
****** 
G|----------5--------5---------|------9---------9----------------------|
D|--------5---5----5---5-------|--------9-----9---9--------------------|
A|-3--3-3-------3--------3-5-7-|-7-7------7---------7-5-3--3-3---------|
E|-----------------------------|--------------------------------3--3-3-|


G|--------------|---------|
D|--------------|---------|
A|--------------|-5-6-7~~-|
E|-3-4-5--5-5-5-|---------|


G|-9---------|-9---------|-5---------|-5-------|
D|---9-------|---9-------|---5-------|---5--s--|
A|-----7-6~~-|-----7-3~~-|-----3-2~~-|-----3\7-|
E|-----------|-----------|-----------|---------|



ENJOY..........
Suggest correction
Give kudos to tab author, rate the tab!
1 2 3 4 5
comments
print report bad tab
guest
You may want to rate the tab now too:
select rating
Wanna post a correction for this tab? Suggest correction