Oops, an error
Loading. Please wait.

One Night Tab

version 1
version 1

Whole song

289 views 1 this week
no commentswrite comment
1 2 3 4 5
excellent!
x 7
add to favorites
launch autoscroll
font size
0
reset
how to read this tab
guitar tuner
Autoscroll
slow
fast
+/-
esc
set tempo
stop
Help us to improve Ultimate-Guitar.com Take our survey!
×
Contributor
Difficulty
ayreon77 16,234
intermediate
                                    Artist - Barclay James Harvest
                                   ********************************
                                           Song - One Night
                                          ******************
                                      Album - Live Tapes (1978)
                                     ***************************


                          br                                br
[---------------12---15---14-12-----|--------------12--15---14-12-----]
[--br-----12--------------------15--|--br-----13------------------15--]
[--11--9------9---12---12-----------|--11--9------9--12--12-----------]
[-----------------------------------|---------------------------------]
[-----------------------------------|---------------------------------]
[-----------------------------------|---------------------------------]


                          br                                br
[---------------12---15---14-12-----|--------------12--15---14-12--------]
[--br-----12--------------------15--|--br-----13------------------15-12--]
[--11--9------9---12---12-----------|--11--9------9--12--12--------------]
[-----------------------------------|------------------------------------]
[-----------------------------------|------------------------------------]
[-----------------------------------|------------------------------------]


VERSE 1
********
G           Am
took all my money
C           Em
Left you no name
C              Em
My love and my money
Am                                    Dsus2
Did you think I would chase it in the rain
G            Am
eyes are now open
C         Em
what do I see
C          Em
ride after midnight
Am                                       Dsus2
Had I thought it would mean that much to me


                                                 
CHORUS                                           [------------------]
*******                                          [------------------]
Am                         Dsus2                 [----h-------------]
Everybody needs someone to love                  [--12-14---h-------]
Am                Dsus2                          [--------12-14-10--]
Everybody needs a friend                         [------------------]
Am                         Dsus2                 
Everybody needs someone to care                  [---------------]
C                                     Em         [---------------]                          
Do you think you could make it in the end        [---------------]
C                                       Em       [---h----h------]
Do you think that you could make it, my friend   [--5-7--3-5-----]
                                                 [------------5--]
 
                                                
  Em      C        Em           C                    h  p
[----------------------------------------------h---12-13-12--------]
[---------h---------h-----------brp---13-----13-15----------13-15--]
[--7-----7-9-9-----9-11-11-----11--9-------------------------------]
[------------------------------------------------------------------]
[------------------------------------------------------------------]
[------------------------------------------------------------------]


VERSE 2
********
G              Am
Thought it was easy
C          Em
what did I know
C                 Em
old men and first blood
Am                                  Dsus2
Or the drunk who gets taken blow by blow
G            Am
dice are all loaded
C              Em
You pay by the throw
C               Em
But you pay the loser
Am                             Dsus2
Seems the rain is turning into snow


CHORUS
*******

 Em                                  C  
                          br                                br
[---------------12---15---14-12-----|--------------12--15---14-12-----]
[--br-----12--------------------15--|--br-----13------------------15--]
[--11--9------9---12---12-----------|--11--9------9--12--12-----------]
[-----------------------------------|---------------------------------]
[-----------------------------------|---------------------------------]
[-----------------------------------|---------------------------------]

 Em                                  C
                          br                                
[---------------12---15---14-12-----|--------------12--15--]
[--br-----12--------------------15--|--br-----13-----------]
[--11--9------9---12---12-----------|--11--9------9--12----]
[-----------------------------------|----------------------]
[-----------------------------------|----------------------]
[-----------------------------------|----------------------]



  Em      C        Em           C                    h  p
[----------------------------------------------h---12-13-12--------]
[---------h---------h-----------brp---13-----13-15----------13-15--]
[--7-----7-9-9-----9-11-11-----11--9-------------------------------]
[------------------------------------------------------------------]
[------------------------------------------------------------------]
[------------------------------------------------------------------]


VERSE 3                             
********                           
G                   Am              
We stand round your doorways        
C               Em                 
You hang on the walls               
C                    Em
Your frames are your windows
Am                     Dsus2      
Put your bodies on the stalls      
G                Am                 
You take all our money              
C               Em                 
We leave you no name               
C                        Em
We're dealt just the one card
Am                            D
But the dealer plays in every game


PLAY THESE PARTS THROUGH VERSE 3
*********************************
[-walls-------------|-stalls------------]
[-------------------|--brp--------------]
[------b----p-------|--9--7---7---------]
[---h--5---7-5---5--|-------9---9-7-----]
[--5-7---7-----7----|---------------10--]
[-------------------|-------------------]


[-money-------------|-name---------]
[-------------------|--b--br-------]
[------b----p-------|--9--9--7--9--]
[---h--5---7-5---5--|--------------]
[--5-7---7-----7----|--------------]
[-------------------|--------------]


[-card------|-game------------]
[-----------|--brp------------]
[------b----|--9--7-----------]
[---h--5----|-------9-7----7--]
[--5-7---7--|-----------10----]
[-----------|-----------------]



CHORUS
*******


GUITAR SOLO - Em  C  Em  C
*************

[-------------------|--UB------------|-------h-----15---------s----]
[-----------h-------|--12-----rb-----|--15-15-17------17-15-17\12--]
[----h----12-14-14--|--14----14--12--|-----------------------------]
[--12-14------------|----------------|-----------------------------]
[-------------------|----------------|-----------------------------]
[-------------------|----------------|-----------------------------]

                                               Keep the note bent
[--UBr---------------------------------------b-----------------------------]
[--12----h--------------------------b-12-15-15-15151515151515151515151515--]
[--14--12-14-12---p------12----12--14--------------------------------------]
[---------------14-12-14----14---------------------------------------------]
[--------------------------------------------------------------------------]
[--------------------------------------------------------------------------]


[-------------------------rb-------br-|-----------------------------]
[--151515151515151515151515-12-15-15--|-15-12-------------brp-------]
[-------------------------------------|-------14--12-14--14--12-12--]
[-------------------------------------|-----------------------------]
[-------------------------------------|-----------------------------]
[-------------------------------------|-----------------------------]


[----------------------------------------------------------]
[--------------s----------s--------------------b-----------]
[----h---12--12\14--12--12\14--12----------12-12-----------]
[--12-14-----12\14------12\14-----14-12-14-------14-12-14--]
[----------------------------------------------------------]
[----------------------------------------------------------]

                   s          s       
[--12-12-12--15--17\15-15---12\15-15-17-15-17--]
[--12-12-12--15--17\15-15---12\15-15-17-15-17--]
[----------------------------------------------]
[----------------------------------------------]
[----------------------------------------------]
[----------------------------------------------]


[---------------------------------------------------------------]
[-------s---15----15-15-15-17----17----17-17-17-15-17-15-17-17--]
[--12-12\16----16-------------16----16--------------------------]
[---------------------------------------------------------------]
[---------------------------------------------------------------]
[---------------------------------------------------------------]

         s            s            s            s      s           
[17-17-17\15--15-15-15\12--12-12-12\15--15-15-15\17--17\19--19-17-15-17-15-]
[17-17-17\15--15-15-15\12--12-12-12\15--15-15-15\17--17\19--19-17-15-17-15-]
[--------------------------------------------------------------------------]
[--------------------------------------------------------------------------]
[--------------------------------------------------------------------------]
[--------------------------------------------------------------------------]

  UB  UB
[-12--12-----------|-------------|----------|--------------------]
[-15--15--15-12----|--b---p------|----------|--------------------]
[---------------14-|-14-14-12-14-|----------|----12----12--14-12-]
[------------------|-------------|-14-12-14-|-14----14-----------]
[------------------|-------------|----------|--------------------]
[------------------|-------------|----------|--------------------]


[-----------|----------------------------------]
[-----------|----------------------------------]
[-12------s-|----------------------------------]
[----14-14\-|--0---------------s---12---s------]
[-----------|------s---10-12-12\14----14\12-10-]
[-----------|----10\12-------------------------]


[-----------------------------|----------------s---]
[-------------------------s---|--------------10\12-]
[-----------------------10\12-|--------------10\12-]
[---------s---12--14-12-------|--14-12-14-12-------]
[-12-10-12\14-----------------|--------------------]
[-----------------------------|--------------------]

                           Slowly relese bend
[-----------b-----------------------------------r------------------------]
[-12-15-12-15-15151515151515151511515151515151515-12--brp-----h----------]
[----------------------------------------------------14--12-12-14-14-14--]
[-----------------------------------------------------------12-14-14-14--]
[------------------------------------------------------------------------]
[------------------------------------------------------------------------]

                                                      Keep notes bent
                                        h            b      r
[----------------------------------12-12-15--12-15--17-171717-15----s-]
[---s------------------------------------------------------------17-\-]
[-14\16-16-16-16-16-16-16-16-16-16------------------------------------]
[---------------------------------------------------------------------]
[---------------------------------------------------------------------]
[---------------------------------------------------------------------]


  Em      C        Em           C                    h  p
[----------------------------------------------h---12-13-12-------------s--]
[---------h---------h-----------brp---13-----13-15----------13-15-----15\--]
[--7-----7-9-9-----9-11-11-----11--9---------------------------------------]
[--------------------------------------------------------------------------]
[--------------------------------------------------------------------------]
[--------------------------------------------------------------------------]



A nice song, hard solo to play..............
Suggest correction new What's this?
You can suggest a correction to this tab. Community and Mods will review your correction and vote to approve or reject it.
comments
print report bad tab
guest
You may want to rate the tab now too:
select rating
Please do not post tabs as comments. Select "correction" instead!