Oops, an error
Loading. Please wait.

Rock N Roll Lady Bass Tab

16 views 6 this week
no commentswrite comment
1 2 3 4 5
3 more votes to show rating
add to favorites
launch autoscroll
font size
0
reset
guitar tuner
Autoscroll
slow
fast
+/-
esc
set tempo
stop
Help us to improve Ultimate-Guitar.com Take our survey!
×
Author
Difficulty
novice
--------------------------------------------------------------------------
                          Artist - Barclay James Harvest
                        *********************************
                           Song - Rock 'N' Roll Lady
                          ***************************
                             Tabbed By - Ayreon77
                            **********************
--------------------------------------------------------------------------
Tuning = Standard             



00:09
INTRO
******
G|------------|
D|------------|
A|-7--5-----5-|
E|-------8----|X6


---------------------------
00:33
VERSE 1
********
G|------------|
D|------------|
A|-7--5-----5-|
E|-------8----|X8


---------------------------
PRE CHORUS
***********
G|-----------------|-----------|-------------------|-----|-----|
D|-----------10----|-----9-----|-------------10----|-----|-----|
A|--------10----10-|-------9---|----------10----10-|-----|---s-|
E|-8~~~-8----------|-8-7-----7-|-7-8~~~-8----------|-8-7-|-7-\-|


---------------------------
01:20
CHORUS
*******
G|------------|
D|------------|
A|-7--5-----5-|
E|-------8----|X4


---------------------------
01:37
SOLO
*****
G|------------|
D|------------|
A|-7--5-----5-|
E|-------8----|X4


---------------------------
01:53
VERSE 2
********
G|------------|
D|------------|
A|-7--5-----5-|
E|-------8----|X8


---------------------------
02:24
PRE CHORUS
***********
G|-----------------|-----------|-------------------|-----|-----|
D|-----------10----|-----9-----|-------------10----|-----|-----|
A|--------10----10-|-------9---|----------10----10-|-----|---s-|
E|-8~~~-8----------|-8-7-----7-|-7-8~~~-8----------|-8-7-|-7-\-|


---------------------------
02:40
CHORUS
*******
G|------------|
D|------------|
A|-7--5-----5-|
E|-------8----|X8


---------------------------
03:11
SOLO
*****
G|------------|
D|------------|
A|-7--5-----5-|
E|-------8----|X16


      Fade Out.................




ENJOY.............
Suggest correction
Give kudos to tab author, rate the tab!
1 2 3 4 5
comments
print report bad tab
guest
You may want to rate the tab now too:
select rating
Wanna post a correction for this tab? Suggest correction