Oops, an error
Loading. Please wait.

Rock N Roll Star Bass Tab

16 views 1 this week
no commentswrite comment
1 2 3 4 5
2 more votes to show rating
add to favorites
launch autoscroll
font size
0
reset
guitar tuner
Autoscroll
slow
fast
+/-
esc
set tempo
stop
Help us to improve Ultimate-Guitar.com Take our survey!
×
Author
Difficulty
Tuning
novice
E A D G B E
--------------------------------------------------------------------------
                            Artist - Barclay James Harvest
                          *********************************
                              Song - Rock 'n' Roll Star
                             ***************************
                          Album - Live Tapes (LIVE) (1978)
                         **********************************
                                Tabbed By - Ayreon77
                               **********************
--------------------------------------------------------------------------
Tuning = Standard             


INTRO
******
G|------------------------|
D|------------------------|
A|-7--7--7--7--7--7--7--7-|
E|------------------------|X88



G|---------------------------|----------------------------|
D|---------------------------|----------------------------|
A|-7---7-----5-6-7-----------|-5-7--7------5-6-7----------|
E|-------7-7--------5--5-0-5-|---------7-7-------5--5-0-5-|


-----------------------------
00:57
VERSE 1
********
  The higher you fly, the harder you fall, The way that it goes, so they say
G|----------------------------|------------------------|
D|----------------------------|------------------------|
A|-5-7--7-----5-6-7--2--2-----|-------------5-7--7-----|
E|--------7-7-------------2-2-|-3-5--5-0-5---------7-7-|

  No mountain's too high, no valley too low, No river too wide on the way
G|----------------------------|------------------------------|
D|----------------------------|------------------------------|
A|-5-7--7-----5-6-7--2--2-----|-------------5-7--7-----5-6-7-|
E|--------7-7-------------2-2-|-3-5--5-0-5---------7-7-------|


-----------------------------
01:14
CHORUS
******* 
      So you're gonna be a rock 'n' roll star........................
G|-----------------|---5---------------|-----------------------------|
D|-----------------|-5---5-5-----------|-----------------------------|
A|-3---3-5---2---3-|---------3-3---3-5-|-7---7------5-7--7-----5-6-7-|
E|-----------------|-------------------|-------7-7---------7-7-------|

  So you want to take a trip to the stars..............
G|-----------------|-----------------|-----------------|
D|-----------------|-----------------|-----------------|
A|-3---3-5---2---3-|-----------------|-----------------|
E|-----------------|-3-3-3-3-3-3-3-3-|-5-5-5-5-5-5-5-5-|


G|----------|------------|------------|------------|
D|----------|------------|------------|------------|
A|-7--7-----|-5-7--7-----|-5-7--7-----|-5-7--7-----|
E|------7-7-|--------7-7-|--------7-7-|--------7-7-|


-----------------------------
01:51
VERSE 2
********
  The harder you try, the lower you fall, The way that it seems, so they say
G|----------------------------|------------------------|
D|----------------------------|------------------------|
A|-5-7--7-----5-6-7--2--2-----|-------------5-7--7-----|
E|--------7-7-------------2-2-|-3-5--5-0-5---------7-7-|

  The mountain is high, the valley so low, You're losing your dreams on the way
G|----------------------------|------------------------------|
D|----------------------------|------------------------------|
A|-5-7--7-----5-6-7--2--2-----|-------------5-7--7-----5-6-7-|
E|--------7-7-------------2-2-|-3-5--5-0-5---------7-7-------|


-----------------------------
02:07
CHORUS
******* 
      So you're gonna be a rock 'n' roll star........................
G|-----------------|---5---------------|-----------------------------|
D|-----------------|-5---5-5-----------|-----------------------------|
A|-3---3-5---2---3-|---------3-3---3-5-|-7---7------5-7--7-----5-6-7-|
E|-----------------|-------------------|-------7-7---------7-7-------|

  So you want to take a trip to the stars..............
G|-----------------|-----------------|-----------------|
D|-----------------|-----------------|-----------------|
A|-3---3-5---2---3-|-----------------|-----------------|
E|-----------------|-3-3-3-3-3-3-3-3-|-5-5-5-5-5-5-5-5-|


G|----------|------------|------------|------------------|
D|----------|------------|------------|------------------|
A|-7--7-----|-5-7--7-----|-5-7--7-----|-5-7--7-----5-6-7-|
E|------7-7-|--------7-7-|--------7-7-|--------7-7-------|


-----------------------------
02:44
BRIDGE
*******
  Looking behind you......................................
G|--------------------------------|-----------------|-----------------|
D|--------------------------------|-----------------|-----------------|
A|-----5-7-----8--------------5-7-|-----------------|-----------------|
E|-5----------------8---7-5-------|-7-7-7-7-7-7-7-7-|-7-7-7-7-7-7-7-7-|


G|----------5-----|----------7-------|
D|-------5----5---|-------7----7-----|
A|-3--7---------3-|-5--9---------5---|
E|----------------|----------------0-|


-----------------------------
03:11
BREAK
******
G|------------------------|
D|------------------------|
A|-7--7--7--7--7--7--7--7-|
E|------------------------|X48


-----------------------------
SOLO
*****
G|--------------------------|------------------------|
D|--------------------------|------------------------|
A|-7--7-----5-6-7--2--2-----|-------------5-7--7-----|
E|------7-7-------------2-2-|-3-5--5-0-5---------7-7-|


G|----------------------------|------------------------------|
D|----------------------------|------------------------------|
A|-5-7--7-----5-6-7--2--2-----|-------------5-7--7-----5-6-7-|
E|--------7-7-------------2-2-|-3-5--5-0-5---------7-7-------|


-----------------------------
03:53
CHORUS
******* 
      So you're gonna be a rock 'n' roll star........................
G|-----------------|---5---------------|-----------------------------|
D|-----------------|-5---5-5-----------|-----------------------------|
A|-3---3-5---2---3-|---------3-3---3-5-|-7---7------5-7--7-----5-6-7-|
E|-----------------|-------------------|-------7-7---------7-7-------|

  So you want to take a trip to the stars..............
G|-----------------|-----------------|-----------------|
D|-----------------|-----------------|-----------------|
A|-3---3-5---2---3-|-----------------|-----------------|
E|-----------------|-3-3-3-3-3-3-3-3-|-5-5-5-5-5-5-5-5-|

04:22
G|----------------|----------|------------------|----------|
D|----------------|----------|------------------|----------|Repeat 
A|-7--7-----5-6-7-|----------|-5-7--7-----5-6-7-|----------|  this 
E|------7-7-------|-5--5-0-5-|--------7-7-------|-5--5-0-5-|    till outro


-----------------------------
OUTRO
******
G|-------------|
D|-------------|
A|-------------|
E|-5---3--2--0-|



ENJOY...........
Suggest correction
Give kudos to tab author, rate the tab!
1 2 3 4 5
comments
print report bad tab
guest
You may want to rate the tab now too:
select rating
Wanna post a correction for this tab? Suggest correction