Oops, an error
Loading. Please wait.

She Said Tab

557 views 6 this week
no commentswrite comment
1 2 3 4 5
x 5
add to favorites
launch autoscroll
font size
0
reset
how to read this tab
guitar tuner
Autoscroll
slow
fast
+/-
esc
set tempo
stop
Help us to improve Ultimate-Guitar.com Take our survey!
×
Author
Difficulty
intermediate
                                          Artist - Barclay James Harvest
                                         ********************************
                                                 Song - She Said
                                                *****************
                                               Album - Once Again
                                              ********************

This is a long song, and it is really tricky in parts.

INTRO
******                      let ring
 Dm       Am       Dm       Am 
                                                    TRILL
[-1---1----1---1----1---1----1--|---h-----h-----h-----h--------------------]
[-3---3----2---2----3---3----2--|-10-11-10-11-10-11-10-11------------------]
[-2---2----2---2----2---2----2--|------------------------------------------]
[-0---0----0---0----0---0----0--|------------------------Vocals come in----]
[-------------------------------|------------------------------------------]
[-------------------------------|------------------------------------------]

VERSE 1
********
Dm                                           Am
She said, Why don't you come and stay with me
Dm                          Am
Far away from people we know
Dm                              Am
We could live our lives together
Dm                    Am
Happiness wherever we go

00:41
 Play this through VERSE 1
[-------------------s-------10----h-----h--p------------]
[-----------------10\11-10------10-11-10-11-10-------10-]
[---------9-10-12------------------------------12-10----]
[-9-11-12-----------------------------------------------]
[-------------------------------------------------------]
[-------------------------------------------------------]
                                                       hold bend
00:54                      UB UB UB UB UB UB  UB UB UB UB      F
[-------------------------|------------------------------------1--]
[-------------------------|-5--5--5--6--6--6---8--8--8--8------1--]
[-----------s-------------|-7--7--7--8--8--8--10-10-10-10---0--2--]
[-12-10-9-10\12-12--12-12-|---------------------------------0--3--]
[-------------------------|------------------------------------3--]
[-------------------------|------------------------------------1--]

-------------------------------------------------
CHORUS
*******
F                 Am
And I will always love her
F                 Am
And I will always care
F                 Am
And I will always love her

01:12                          01:22
 Play this through CHORUS
  UB  UBr UB  UBr UB  UB         UB UB UB UB  UB UB UB UB  UB UB UB UB UB UB
[-------------------------br---|--------------------------------------------]
[-10--10--10--10--10--10-13----|-10-10-10-10--10-10-10-10--10-10-10-10-10-10]
[-12--12--12--12--12--12----10-|-12-12-12-12--12-12-12-12--12-12-12-12-12-12]
[------------------------------|--------------------------------------------]
[------------------------------|--------------------------------------------]
[------------------------------|--------------------------------------------]
01:30
  UB  UB   UB
[-10--13------]
[-13--16---10-]
[----------12-]
[-------------]
[-------------]
[-------------]

-------------------------------------------------
01:50
SOLO 1
*******                   UB  UB  UB 
[---------------|---------------------------------------------]
[---------------|---------10--12--13-15-13-12--10------s----s-]
[---------s-----|---------12--14--15--------------12-12\14--\-]
[-10-12-10\9----|------10-------------------------------------]
[------------12-|-6-12----------------------------------------]
[---------------|---------------------------------------------]

                             UB  UB  UB
[------------------|------------------------------------]
[------------------|---------10--12--13-15-13-12--10----]
[------------s-----|---------12--14--15--------------12-]
[----10-12-10\9----|------10----------------------------]
[-10------------12-|-6-12-------------------------------]
[------------------|------------------------------------]

  UB UB UB UB  UB UB UB UB  UB UB UB UB  UB UB
[----------------------------------------------]
[-10-10-10-10--10-10-10-10--10-10-10-10--10-10-]
[-12-12-12-12--12-12-12-12--12-12-12-12--12-12-]
[----------------------------------------------]
[----------------------------------------------]
[----------------------------------------------]


                            let ring
 Dm       Am       Dm       Am 
                                                    TRILL
[-1---1----1---1----1---1----1--|---h-----h-----h-----h--------------------]
[-3---3----2---2----3---3----2--|-10-11-10-11-10-11-10-11------------------]
[-2---2----2---2----2---2----2--|------------------------------------------]
[-0---0----0---0----0---0----0--|------------------------Vocals come in----]
[-------------------------------|------------------------------------------]
[-------------------------------|------------------------------------------]

VERSE 2
********
Dm                                   Am
Wasn't long before she grew tired of me
Dm                                 Am
And the life she thought would redeem
Dm                                  Am
All the love she'd thrown away as a child
Dm
All the things she thought she had seen

02:40
 Play this through VERSE 1
[-------------------s-------10----h-----h--p------------]
[-----------------10\11-10------10-11-10-11-10-------10-]
[---------9-10-12------------------------------12-10----]
[-9-11-12-----------------------------------------------]
[-------------------------------------------------------]
[-------------------------------------------------------]
                                                       hold bend
02:52                      UB UB UB UB UB UB  UB UB UB UB      F
[-------------------------|------------------------------------1--]
[-------------------------|-5--5--5--6--6--6---8--8--8--8------1--]
[-----------s-------------|-7--7--7--8--8--8--10-10-10-10---0--2--]
[-12-10-9-10\12-12--12-12-|---------------------------------0--3--]
[-------------------------|------------------------------------3--]
[-------------------------|------------------------------------1--]


-------------------------------------------------
CHORUS - 03:06
***************
03:10                          03:20
 Play this through CHORUS
  UB  UBr UB  UBr UB  UB         UB UB UB UB  UB UB UB UB  UB UB UB UB UB UB
[-------------------------br---|--------------------------------------------]
[-10--10--10--10--10--10-13----|-10-10-10-10--10-10-10-10--10-10-10-10-10-10]
[-12--12--12--12--12--12----10-|-12-12-12-12--12-12-12-12--12-12-12-12-12-12]
[------------------------------|--------------------------------------------]
[------------------------------|--------------------------------------------]
[------------------------------|--------------------------------------------]

03:28
  UB  UB   UB
[-10--13------]
[-13--16---10-]
[----------12-]
[-------------]
[-------------]
[-------------]


03:36
SOLO 1
*******                   UB  UB  UB 
[---------------|---------------------------------------------]
[---------------|---------10--12--13-15-13-12--10------s----s-]
[------p--s-----|---------12--14--15--------------12-12\14--\-]
[-10-12-10\9----|------10-------------------------------------]
[------------12-|-6-12----------------------------------------]
[---------------|---------------------------------------------]

                             UB  UB  UB
[------------------|------------------------------------------]
[------------------|---------10--12--13-15-13-12--10------s---]
[------------s-----|---------12--14--15--------------12-12\14-]
[----10-12-10\9----|------10----------------------------------]
[-10------------12-|-6-12-------------------------------------]
[------------------|------------------------------------------]


-------------------------------------------------
CYMBALS
********
-------------------------------------------------

05:50                       let ring
 Dm       Am       Dm       Am 
                                                  
[-1---1----1---1----1---1----1--]
[-3---3----2---2----3---3----2--]
[-2---2----2---2----2---2----2--]
[-0---0----0---0----0---0----0--]
[-------------------------------]
[-------------------------------]

-------------------------------------------------
06:13
SOLO 2 - Dm Am
***************
[----------|---------------------------------------------------------------]
[--------b-|--rb---h--p--h--p----------------------------------------------]
[----10-12-|-12--10-12-10-12-10----p--s---h--p-h--p----h--s---------s------]
[-12-------|---------------------12-10\9-9-10-9-10-9--9-10\12--12-12\14-12-]
[----------|---------------------------------------------------------------]
[----------|---------------------------------------------------------------]

                                                    UB UB UB UBr
[------------------------b-|---h-----h-----h--p---|-10-10-10-10----]
[-------h------10----10-10-|-10-11-10-11-10-11-10-|-13-13-13-13-10-]
[----9-9-10-12----12-------|----------------------|----------------]
[-12-----------------------|----------------------|----------------]
[--------------------------|----------------------|----------------]
[--------------------------|----------------------|----------------]

06:36       Slow Release
   b  b  b  b r   h  p
[-13-13-13-13---10-13-10-|--br--------h--p---]
[------------------------|-13-10-11-10-11-10-]
[------------------------|-------------------]
[------------------------|-------------------]
[------------------------|-------------------]
[------------------------|-------------------]

06:44
[--------------------------10----------]
[--------------p----p----b----13---p---]
[--------h---10-9-12-10-12-------12-10-]
[---h--10-12---------------------------]
[-10-12--------------------------------]
[--------------------------------------]


[----------------------------------------]
[-----------------b---br--br---s--s--s---]
[----10-12-10-12-12--12--12-10-\14\15\14-]
[-12-------------------------------------]
[----------------------------------------]
[----------------------------------------]

-------------------------------------------------
CHORUS - 06:54
***************
06:59                           07:09
 Play this through CHORUS
  UB  UBr UB  UBr UB  UB         UB UB UB UB  UB UB UB UB  UB UB UB UB UB UB
[-------------------------br---|--------------------------------------------]
[-10--10--10--10--10--10-13----|-10-10-10-10--10-10-10-10--10-10-10-10-10-10]
[-12--12--12--12--12--12----10-|-12-12-12-12--12-12-12-12--12-12-12-12-12-12]
[------------------------------|--------------------------------------------]
[------------------------------|--------------------------------------------]
[------------------------------|--------------------------------------------]

07:17
  UB  UB   UB
[-10--13------]
[-13--16---10-]
[----------12-]
[-------------]
[-------------]
[-------------]


-------------------------------------------------
07:25
SOLO 3
*******                     UB  UB  UB 
[-----------------|---------------------------------------------]
[-----------------|---------10--12--13-15-13-12--10------s----s-]
[------p--s-------|---------12--14--15--------------12-12\14--\-]
[-10-12-10\9-9----|------10-------------------------------------]
[--------------12-|-6-12----------------------------------------]
[-----------------|---------------------------------------------]

                             UB  UB  UB
[------------------|------------------------------------]
[------------------|---------10--12--13-15-13-12--10----]
[------------s-----|---------12--14--15--------------12-]
[----10-12-10\9----|------10----------------------------]
[-10------------12-|-6-12-------------------------------]
[------------------|------------------------------------]

  UB UB UB UB  UB UB UB UB  UB UB UB UB  UB UB
[----------------------------------------------]
[-10-10-10-10--10-10-10-10--10-10-10-10--10-10-]
[-12-12-12-12--12-12-12-12--12-12-12-12--12-12-]
[----------------------------------------------]
[----------------------------------------------]
[----------------------------------------------]

                     b  b   b
[--b--brp---------|-15-15--15--------------------br--b-]
[-15-15--13----13-|-----------13-15-13-15-13-15-15--15-]
[-----------14----|------------------------------------]
[-----------------|------------------------------------]
[-----------------|------------------------------------]
[-----------------|------------------------------------]


[--rbp------------rbp------------rbp---------------]
[-15--13----13---15--13----13---15--13----13----13-]
[--------14-------------14-------------14----14----]
[--------------------------------------------------]
[--------------------------------------------------]
[--------------------------------------------------]

                        br br br br           
[---b-12-15--12-15--12-15-15-15-15--12---------------b--b--br--b--rb------]
[--15----------------------------------15-13-15-13--15-15-15--15-15-13-13-]
[-------------------------------------------------------------------------]
[-------------------------------------------------------------------------]
[-------------------------------------------------------------------------]
[-------------------------------------------------------------------------]

                        br
[--------brp---------|-15-12------------brp-----------------]
[-15-13-15--13----13-|-------15-13-15--15--13---------------]
[--------------14----|------------------------14-14--14-14--]
[--------------------|--------------------------------------]
[--------------------|--------------------------------------]
[--------------------|--------------------------------------]

  UB UB  UB UB  UB UB  UB UB     b
[-------------------------------18-]
[-10-10--10-10--10-10--10-10-------]
[-12-12--12-12--12-12--12-12-------]
[----------------------------------]
[----------------------------------]
[----------------------------------]



A really cool BJH track, pretty hard to play, so i hope someone can use it. Enjoy..........
Suggest correction
comments
print report bad tab
guest
You may want to rate the tab now too:
select rating
Wanna post a correction for this tab? Suggest correction