Oops, an error
Loading. Please wait.

Suicide Bass Tab

125 views 1 this week
no commentswrite comment
1 2 3 4 5
x 4
add to favorites
launch autoscroll
font size
0
reset
guitar tuner
Autoscroll
slow
fast
+/-
esc
set tempo
stop
Help us to improve Ultimate-Guitar.com Take our survey!
×
Author
Difficulty
intermediate
                                        Artist - Barclay James Harvest
                                       ********************************
                                               Song - Suicide
                                              ****************
                                           Album - Live Tapes 1978
                                          *************************

The Bass

[----------------|-----------|--------|-----------|---s--------|-----------]
[----------------|-----------|--------|-----------|--6\7--6----|-----------]
[----------------|-----------|--------|-----------|---------9--|--9--7-----]
[--0----2--4--5--|--5--7--9--|--5--9--|--9--7--5--|------------|-------9---]


[--------|--------|---------]
[--------|--------|---------]
[--------|--------|---h--7--]
[--7--5--|--5--7--|--7-9----]


[------------------|-----------|--------|-----------|---s--------|----------]
[------------------|-----------|--------|-----------|--6\7--6----|----------]
[------------------|-----------|--------|-----------|---------9--|--9--7----]
[--0---0--2--4--5--|--5--7--9--|--5--9--|--9--7--5--|------------|-------9--]

                       I Awoke          Cold                             s
[--------|----------|-------------------------------18--16--14--13--11--9\--]
[--------|----------|-------------------------------------------------------]
[--------|----------|---s---------------------------------------------------]
[--7--5--|--7----5--|--7\--0-------------0----------------------------------]


[-------------|--------|-------|-------------------------]
[--7-----7-6--|--6--4--|--4----|-------------------------]
[------7------|--------|----7--|--7-6--------------------]
[-------------|--------|-------|------9--7--5--4--2---0--]



[---------------|-------------|---------------|-----------|--------]
[---------------|-------------|---------------|-----------|--------]
[-------s--2----|---s--7--s---|-------s--2----|-----------|--------]
[--0-0-2\4---5--|--5\9---9\0--|--0-0-2\4---5--|--5--7--9--|--5--9--]

             02:16
[-----------|--------------|---------------|-----------]
[-----------|--------------|---------------|-----------]
[-----------|--------2-----|---------------|-----------]
[--9--7--5--|--4--2-----0--|--5---5--7--9--|--9--7--5--]


I Walked Out                             To A Club
[-------------------|-----------|-------|-----------|--------|-------------]
[-------------------|-----------|-------|-----------|--------|-------------]
[---------------s---|-----------|---s---|-----------|--------|-------------]
[---------0----0\5--|--9--7--0--|--0\5--|--5--7--9--|--5--9--|--9--7--5----]

                03:06                             To The Floor
[--------------|--------------|------------------|-----------|-------------]
[--------------|--------------|------------------|-----------|-------------]
[--------------|---h--7-------|------------------|-----------|-------------]
[--4--2--0--7--|--7-9---9--7--|--0---0--2--4--5--|--5--7--9--|--5--9-------]


             I Took Out           Life Subscription
[-----------|-----------|--------|-----------|--------------|--------------]
[-----------|-----------|--------|-----------|--------------|--------------]
[-----------|-----------|--------|-----------|--------------|-----s--------]
[--9--7--5--|--5--7--9--|--5--9--|--9--7--5--|--4--2--7--5--|---12\--------]

Guitar Solo
03:38
[------------------|-----------|--------|-----------|---s--------|---------]
[------------------|-----------|--------|-----------|--6\7--6----|---------]
[------------------|-----------|--------|-----------|---------9--|--9--7---]
[--0---0--2--4--5--|--5--7--9--|--5--9--|--9--7--5--|------------|-------9-]


                     
[--------|----------|------------------------------------------------------]
[--------|----------|------------------------------------------------------]
[--------|----------|-6666666666666666666777777777777777777888888888888888-]
[--7--5--|--0--7--7-|------------------------------------------------------]



[------------------------------------s----]
[-----------------------------------8\11--]
[-999910-10-10-10-11-11-11-11-11-11-------]
[-----------------------------------------]


I Stepped Out
[----------------|----------p-----|----------------|----------p-----]
[------s---------|---s--4--6-4----|------s---------|---s--4--6-4----]
[-----4\6-4------|--4\6--------6--|-----4\6-4------|--4\6--------6--]
[--2--------6-7--|----------------|--2--------6-7--|----------------]


      (fast tricky bit)     Don,t Jump
[----|-----------6-8-11-8--|----------------------------|--------|---------]
[----|-------6-8-----------|--9--8--6--4----------------|--------|---------]
[--6-|-6-6-9---------------|-------------8-6-4----------|--2--6--|--6-4-2--]
[----|---------------------|-------------------7-6-4-2--|--------|---------]

                                Felt The Air Rush         05:22
[--------|-----------|--8------|-------------------------|-----------------]
[--------|-----------|----8----|-------------------------|-----------------]
[-----2--|--2--4--6--|------6--|--2------2---------4--2--|------s--4--2----]
[--2-----|-----------|---------|------2-----6--4---------|--2--4\6---------]


                                  05:42
[---------|---------|------------|-----------|-----------]
[---------|---------|------------|-----------|-----------]
[--2-4-6--|--6-4-2--|--2--2------|--6---6----|--------4--]
[---------|---------|-------6-4--|--------7--|--7--4-----]


05:53
[-------------------|--------------|---------|------------|-------|--------]
[-------------------|--------------|---------|------------|-------|--------]
[-----------s--4--2-|----2--2-4-6--|--6-4-2--|--2---------|-2-4-6-|-6-4-2--]
[--2----2--4\6------|--2-----------|---------|------6---4-|-------|--------]


         
[-------|--------------------------------------------------------------]
[-------|--------------------------------------------------------------]
[----2--|--777777777777777999999999999999910-10-10-10-10-10-10-10-10---]
[--2----|--------------------------------------------------------------]



[------------------------------------------]
[--------------------------------------13--]
[--11-11-11-11-12-12-12-12-13-13-13-13-----]
[------------------------------------------]


A Nice Bass To Play Along Too. Enjoy.........
Suggest correction
comments
print report bad tab
guest
You may want to rate the tab now too:
select rating
Wanna post a correction for this tab? Suggest correction