Oops, an error
Loading. Please wait.

Taking Me Higher Tab

229 views 1 this week
no commentswrite comment
1 2 3 4 5
excellent!
x 4
add to favorites
launch autoscroll
font size
0
reset
how to read this tab
guitar tuner
Autoscroll
slow
fast
+/-
esc
set tempo
stop
Help us to improve Ultimate-Guitar.com Take our survey!
×
Author
Difficulty
ayreon77 16,469
intermediate
                        Artist - Barclay James Harvest
                       ********************************
                            Song - Taking Me Higher
                           *************************
                              Album - Live Tapes
                             ********************  

Piano Intro
************
Dm7  C

F            C
Used to be a dreamer
F                 C     Dbm7
But you know I've found
Am             Em
A better way - you

F               C
Thought I was a loser
F                 C     Dbm7
But you proved me wrong


Picking Section 1
******************
     C            F           C           D
[-----------|-----------|-----------|-----------]
[------1----|------1----|------1----|------3----]
[----0---0--|----2---2--|----0---0--|----2---2--]
[--2--------|--3--------|--2--------|--0--------]
[-----------|-----------|-----------|-----------]
[-----------|-----------|-----------|-----------]

     C            F           C             Am
[-----------|-----------|-----------|----------2------]
[------1----|------1----|------1----|------1-----1----]
[----0---0--|----2---2--|----0---0--|----2---2-----2--]
[--2--------|--3--------|--2--------|--2--------------]
[-----------|-----------|-----------|-----------------]
[-----------|-----------|-----------|-----------------]

C      F          G      D
You're taking me so much higher
C      F          C      Am
You're taking me so much higher


Eb      F
oooohhh ooohhhhh
F          C
Higher and higher


Eb      F
oooohhh ooohhhhh

Repeat Picking Section
***********************
Am7         F          C      D
Girl You're taking me so much higher 
 C      F          C      Am
You're taking me so much higher                            


[--s-b-------------------------|--------------------------11--]
[--\11--11----p-----s----------|--------------p----s---11-----]
[-----------13-12-13\12--------|---s---8-8--10-8-10\12--------]
[-----------------------13--8--|--8\10------------------------]
[------------------------------|------------------------------]
[------------------------------|------------------------------]

                   b
[-----------10-13-13--]
[----s---11-----------]
[--10\12--------------]
[---------------------]
[---------------------]
[---------------------]

C      F          G      D
You're taking me so much higher
C      F          C      Am
You're taking me so much higher


Volume 
*******
[--20--18--16--15--16-13-11--10--8--6--4--------s-----]
[----------------------------------------6-4--6-\8-8--]
[-----------------------------------------------------]
[-----------------------------------------------------]
[-----------------------------------------------------]
[-----------------------------------------------------]

                                  Hold                  Hold
Solo                          b           r         b           r
[---------------------11--|--13-13-13-13-13-11--|--13-13-13-13-13-11--]
[-----------s---11-13-----|---------------------|---------------------]
[-------8-10\12-----------|---------------------|---------------------]
[--8-10-------------------|---------------------|---------------------]
[-------------------------|---------------------|---------------------]
[-------------------------|---------------------|---------------------]

       Hold                                      Hold
    b           r        br                      b             
[--13-13-13-13-13--11-13-13-11-13-11--13-11--|--18-----18--]
[--------------------------------------------|-------------]
[--------------------------------------------|-------------]
[--------------------------------------------|-------------]
[--------------------------------------------|-------------]
[--------------------------------------------|-------------]

     p     p
[--16-15-16-15--------|--------11-------11-------11-------11-------11-11-11]
[--------------16-----|--11-13----11-13----11-13----11-13----11-13---------]
[-----------------15--|----------------------------------------------------]
[---------------------|----------------------------------------------------]
[---------------------|----------------------------------------------------]
[---------------------|----------------------------------------------------]


[--13-13--11-13-15-15--|-----15-18-18--]
[----------------------|--16-----------]
[----------------------|---------------]
[----------------------|---------------]
[----------------------|---------------]
[----------------------|---------------]


[--------------------------------------------------------------]
[-----------20-------20-20--20-------20-------20--23-20--------]
[--20-20-22----20-22-----------20-22----20-22-----------22-20--]
[--------------------------------------------------------------]
[--------------------------------------------------------------]
[--------------------------------------------------------------]


[----------------------------------------------]
[--13-11--13-11-8--------------s---11---s------]
[------------------10-8-10-8-10\12----12/10-8--]
[----------------------------------------------]
[----------------------------------------------]
[----------------------------------------------]


[--------------------------------------------------------------------------]
[----p----------------------11-13-11-13-11-8--------p--------------s----11-]
[--10-8----------8-10-10\12------------------10-8-10-8-----8-10--10\12-----]
[-------10-10-10----------------------------------------10-----------------]
[--------------------------------------------------------------------------]
[--------------------------------------------------------------------------]

                                                                    
[----------------|----------------------------]
[----------------|----------------------------]
[--12-10-8-10-8--|----s--8-8-8------s--8-8-8--]
[----------------|-8-8\10--------8-8\10-------]
[----------------|----------------------------]
[----------------|----------------------------]

                      b
[--------------11-13-13-13-11-13-11--]
[--11-13-11-13-----------------------]
[------------------------------------]
[------------------------------------]
[------------------------------------]
[------------------------------------]


[--20-20-20--18-18--16-16--15-15--13-13--11-11-11--------------------------]
[--------------------------------------------------13-13-13---13-11-11-11--]
[--------------------------------------------------------------------------]
[--------------------------------------------------------------------------]
[--------------------------------------------------------------------------]
[--------------------------------------------------------------------------]


[-----------------------------|------b------b-r-b-r-----]
[-----------------------------|--11-11--11--8-----------]
[--12-10-12-12-10-8----8~~~~--|--------------------8----]
[-------------------10--------|----------------------8--]
[-----------------------------|-------------------------]
[-----------------------------|-------------------------]

                                              start slowing down  Union Bend
[-------------------------11--|----------8---------------12--14------16----]
[------------------s---11-----|---s----9---9------s---12-------------19----]
[---s---8-8--10--10\12--------|--8\10-----------11\13----------------------]
[--8\10-----------------------|--------------------------------------------]
[-----------------------------|--------------------------------------------]
[-----------------------------|--------------------------------------------]


This Is Quite A Tricky Solo To Play. Good Luck
Suggest correction
What's this?
You can suggest a correction to this tab. Community and Mods will review your correction and vote to approve or reject it.
comments
print report bad tab
guest
You may want to rate the tab now too:
select rating
Please do not post tabs as comments. Select "correction" instead!