Oops, an error
Loading. Please wait.

Found My Way Tab

513 views 1 this week
no commentswrite comment
1 2 3 4 5
please rate
add to favorites
launch autoscroll
font size
0
reset
how to read this tab
guitar tuner
Autoscroll
slow
fast
+/-
esc
set tempo
stop
Help us to improve Ultimate-Guitar.com Take our survey!
×
Difficulty
novice
-------------------------------------------------------------------------------
                             FOUND MY WAY - Barefoot Truth
-------------------------------------------------------------------------------
Tabbed by: Sam McG.
Email: smcg71090@yahoo.com

Tuning: Standard



e|---------------------------------------------------------------------------|
B|-----------------------3----------3-----3s5--------------------------------|
G|-0--2--/4----2----4---------4----------------------------------------------|
D|---------------------------------------------------------------------------|
A|---------------------------------------------------------------------------|
E|---------------------------------------------------------------------------|


e|---------------------------------------------------------------------------|
B|---------------------3--------3-----3/7-----8--7---------------------------|
G|-0--2--/4----2---4-------4-------------------------------------------------|
D|---------------------------------------------------------------------------|
A|---------------------------------------------------------------------------|
E|---------------------------------------------------------------------------|


e|---------------------------------------------------------------------------|
B-----------------------3----------3-----3s5---------------------------------|
G-0--2--/4----2----4---------4-----------------------------------------------|
D ---------------------------------------------------------------------------|
A ---------------------------------------------------------------------------|
E ---------------------------------------------------------------------------|


e|---------------------------------------------------------------------------|
B|---------------------3--------3-----3/7-----7--7h8--7----3---3h5-----------|
G|-0--2--/4----2---4-------4-------------------------------------------------|
D|---------------------------------------------------------------------------|
A|---------------------------------------------------------------------------|
E|---------------------------------------------------------------------------|



Intro Chords:

   em   em        G   G            D
e|--7---7---------10--10-----------5-----------------------------------------|
B|--8---8---------12--12-----------7-----------------------------------------|
G|--9---9---------12--12-----------7-----------------------------------------|
D|--9---9---------12--12-----------7-----------------------------------------|
A|--7---7---------10--10-----------5-----------------------------------------|
E|--7---7---------10--10-----------5-----------------------------------------|


em    G    D                         em     G      D       
                  Oh I found my way 

                        em         G      D
I'm surely not all alo-ne here 

     B              em     
Oh I'll paddle away, 

G       D           B             em
she is hiding three here, 

G                              D           em
two that I have never really known 

G          D                  em
Staring in through the haze 

G          D                        B           em
wrapped up in this discrete little maze 

G          D          B           em
The sea is hiding me here 

G                             D
I never really know what to say 

               B                                        
Well keep me here, 

              C
yeah keep me away, yeah





************************************

| /   slide up
| \   slide down
| h   hammer-on
| p   pull-off
| ~   vibrato
| +   harmonic
| x   Mute note
| b   Bend
| pb  Pre-bend
| br  Bend release
| pbr Pre-bend release
| brb Bend release bend

************************************
Suggest correction
Give kudos to tab author, rate the tab!
1 2 3 4 5
comments
print report bad tab
guest
You may want to rate the tab now too:
select rating
Wanna post a correction for this tab? Suggest correction