Oops, an error
Loading. Please wait.

The Harvest Tab

416 views 1 this week
1 commentread comment
1 2 3 4 5
please rate
add to favorites
launch autoscroll
font size
0
reset
how to read this tab
guitar tuner
Tab Pro tools
  • play this tab
  • loop segment
  • change instrument
  • show fretboard
  • metronome
×
Best way to learn
"The Harvest"
Autoscroll
slow
fast
+/-
esc
set tempo
stop
Standard Tuning:  EADGBE


CHORDS USED:
       ?     A     G     Bm    D
E|-----5-----------3-----2-----2-----|
B|-----5-----2-----3-----4-----3-----|
G|-----------2-----------3-----2-----|
D|-----4-----2-----------3-----------|
A|-----5-----------2-----2-----------|
E|-----------------3-----------------|


VERSE:
             ?         A
E|-----------5---------------|
B|-----------5---------2-----|
G|---------------------2-----|
D|-----------4---2-2---2-----|  3x
A|-----3/5-5-5-5-----0-------|
E|---------------------------|

             G         A
E|-----------3---------------|
B|-----------3---------2-----|
G|---------------------2-----|
D|-----0---------------2-----|  
A|---0-------2---------------|
E|-------3-3-3---------------|


CHORUS:
             Bm        G
E|-----------2---------3--------------------------------|
B|-----------3---------3--------------------------------|
G|-----------4------------------------------------------|
D|-----------4---------------4--2--2--0--0--0--0--0-----|
A|---------2-2---------2-----5--4--4--2--2--0--0--0-----|
E|---------------------3--------------------------------|

             Bm        G           D             A
E|-----------2---------3-------3---2--2h3p2--2----------|
B|-----------3---------3-------3---3--3------3---2------|
G|-----------4---------------------2--2------2---2------|
D|-----------4-----------------------------------2------|
A|---------2-2---------2--0h2--2------------------------|
E|---------------------3-------3------------------------|

             Bm        G
E|-----------2---------3--------------------------------|
B|-----------3---------3--------------------------------|
G|-----------4------------------------------------------|
D|-----------4---------------4--2--2--0--0--0--0--0-----|
A|---------2-2---------2-----5--4--4--2--2--0--0--0-----|
E|---------------------3--------------------------------|

             Bm        G             A
E|-----------2---------3-------3------------------------|
B|-----------3---------3-------3-----2------------------|
G|-----------4-----------------------2------------------|
D|-----------4-----------------------2------------------|
A|---------2-2---------2--0h2--2------------------------|
E|---------------------3-------3------------------------|


BRIDGE:

E|----------------------------------------------|
B|----------------------------------------------|
G|----------------------------------2-----------|
D|-----------------------0--2--2h4-----2--0-----|  2x
A|-----5--5--4--4--2--2-------------------------|
E|----------------------------------------------|

E|----------------------------------------------|
B|----------------------------------3-----------|
G|-----------------------0--0----2--2--0--------|
D|-----4--4--2--2--0--0--0--2----4-----2/4------|  
A|-----5--5--4--4--2--2------------------5------|
E|----------------------------------------------|

E|-----------------------------------------------------|
B|-----------------------------------------------------|
G|-----------------------------------------------------|
D|-----4--4--2--2--0--0--0--0--------------------------|  
A|-----5--5--4--4--2--2--0--0--2--2--0--0--2--2--4--4--|
E|-----------------------------3--3--2--2--3--3--5--5--|


SOLO:

E|-------------------------------------------------------------------|
B|-------------------------------------------------------------------|
G|------7-7h9-----7-9/11-9-----7-7h9-7h9p7-0-------------------------|
D|--7h9-------7h9----------7h9---------------7h9p7-0-----------------|  
A|---------------------------------------------------7h9-7/5-5h7-5---|
E|-------------------------------------------------------------------|

E|-------------------------------------------------------------------|
B|-----------------------------------------------------10------------|
G|------------------------------------------7-9-7-9/11----9-7--------|
D|--------------------------------------7-9--------------------------|  
A|--5-5h7-----5-7/9-7-----5-5h7-5h7-7/9------------------------------|
E|--------5h7---------5h7--------------------------------------------|


ENDING:
         D        A     G        A
E|-------5--5-----5-----3--3-----5-----|
B|-------7--7-----5-----3--3-----5-----|
G|-------7--7-----6-----4--4-----6-----|
D|-------7--7-----7-----5--5-----7-----|  3x
A|-------5--5-----7-----5--5-----7-----|
E|----------------5-----3--3-----5-----|

                                 D
E|-------------------------------5-----|
B|-------------------------------7-----|
G|---------------------4-6-------7-----|
D|-------4h5p4---4-5-7-----------7-----|  
A|-------------7-----------------5-----|
E|-------------------------------------|
comments
We did not receive enough feedback on this tab! Please rate:
print report bad tab
1 2 3 4 5
1 comment total.
0 reply
atmydrive-in wrote on July 11 2011, 06:30 pm

Sweet... Finally!

Jw... Are u a member of the band?

I want to post or [tab]
guest
You may want to rate the tab now too:
select rating
Please do not post tabs as comments. Select "correction" instead!