Oops, an error
Loading. Please wait.

Worth Tab

571 views 1 this week
no commentswrite comment
1 2 3 4 5
excellent!
x 1
add to favorites
launch autoscroll
font size
0
reset
how to read this tab
guitar tuner
Tab Pro tools
  • play this tab
  • loop segment
  • change instrument
  • show fretboard
  • metronome
Autoscroll
slow
fast
+/-
esc
set tempo
stop
Contributor
Difficulty
novice
-----------------------------------------------------------------
                     WORTH - BAREFOOT TRUTH
-----------------------------------------------------------------
Tabbed by: Matty750
Tuning:Standard



Intro / Verse 

Guitar 1
e|---------------------------------------------------------------|
B|---------------------------------------------------------------|
G|---7-5-4-4h5p4-------4-2---------------------------------------|
D|-5-------------7-5-2-----5---4-5-------------------------------|
A|---------------------------5-----------------------------------|
E|---------------------------------------------------------------|

Guitar 2
   G    Em   D
e|-3----0----2--------------|
B|-0----0----3--------------|
G|-0----0----2--------------|
D|-0----2----0--------------|
A|-2----2----0--------------|
E|-3----0----0--------------|



Pre Chorus  
( The moment I lose you....)

Guitar 1
e|------------------------------|
B|-8-8-7-5----------------------|
G|---------7-7-5----------------| x2
D|---------------9-7---9-9-7----|
A|------------------------------|
E|------------------------------|

Guitar 2
   C   G   D
e|-0---3---2---|
B|-1---0---3---|
G|-0---0---2---| x2
D|-2---0---0---|
A|-3---2---0---|
E|-0---3---0---|

Chorus

Guitar 1
e|-7-7-8-10-8----------------------------|
B|------------8-7-5----------------------|
G|------------------7-7-5----------------| x3
D|------------------------9-7---7-7-9----|
A|---------------------------------------|
E|---------------------------------------|

e|-7-10-12/15-15-14-12-------------------------------------------|
B|---------------------15-15-13-12-------------------------------|
G|---------------------------------14--14-12-11------------------|
D|---------------------------------------------------------------|
A|---------------------------------------------------------------|
E|---------------------------------------------------------------|

Guitar 2
   G   Am  C   D
e|-3---0---0---2-----|
B|-0---1---1---3-----|
G|-0---2---0---2-----|
D|-0---2---2---0-----|
A|-2---0---3---0-----|
E|-3-------0---------|


Bridge

Guitar 2
   Em C  G  ?       F  C  ?
e|-0--0--3--3-------0--0--0---------------------------------------|
B|-0--1--0--0-------1--1--3---------------------------------------|
G|-0--0--0--0--x3---2--0--0---------------------------------------|
D|-2--2--0--0-------3--2--4---------------------------------------|
A|-2--3--2--2-------0--3--5---------------------------------------|
E|-0--0--3--2----------0--0---------------------------------------|


Solo
e|-8-8/10\8-8-8/10\8-7----8-7------------------------------------|
B|----------------------------7-------------5--------------------|
G|------------------------------------4-5-7----------------------|
D|------------------------------4-5-7----------------------------|
A|---------------------------------------------------------------|
E|---------------------------------------------------------------|

e|-8-8-7-8/10-10/12\10-7-10-7----10----10----7-5-----------------|
B|-----------------------------10--10-8--8-7-----7---------------|
G|---------------------------------------------------------------|
D|---------------------------------------------------------------|
A|---------------------------------------------------------------|
E|---------------------------------------------------------------|

| /  slide up
| \  slide down
| h  hammer-on
| p  pull-off
| ~  vibrato
| +  harmonic
| x  Mute note
comments
We did not receive enough feedback on this tab! Please rate:
print report bad tab
1 2 3 4 5
I want to post or [tab]
guest
You may want to rate the tab now too:
select rating
Please do not post tabs as comments. Select "correction" instead!