Oops, an error
Loading. Please wait.

Serendipity bass

61 views 1 this week
no commentswrite comment
1 2 3 4 5
3 more votes to show rating
add to favorites
×
Save as Personal and add changes to this tab that will be seen only by you. Learn more ›
×
You can save this tab as Personal to edit and correct it or add notes. All changes will be seen only by you. Learn more »
launch autoscroll
font size
0
reset
guitar tuner
edit
Autoscroll
slow
fast
+/-
esc
set tempo
stop
Author
Difficulty
Jim adds some doubles in there, but this is the basic form. 

Start fading in @ the 2nd "money from moving lawns" (~0:35)
repeat 5x
----------------------------------------------------------:|
----------------------------------------------------------:|
----5---------5~~~------5---------5--7--5-----------------:|
-------5--7---------------5--7--5-----------7-------------:|


Bridge transition
----------------------------------------------
----------------------------------------4/5---
----5---------5~~~------5---------5--7--------
-------5--7---------------5--7--5-------------

Chorus
"If I had a good reason"

--------------------------------------------------------------
--7---5-------------4/5-----7---5----------4/5555555555555----
----------5--7-7-------------------5-6/7----------------------
--------------------------------------------------------------

"Good for you, good for me... 
repeat 4x
----------------------------------------------------------:|
----------------------------------------------------------:|
----5---------5~~~------5---------5--7--5-----------------:|
-------5--7---------------5--7--5-----------7-------------:|

*ALTERNATE picking*(Sometimes Jim keeps it running)
----------------------------------------------------------:|
----------------------------------------------------------:|
----5-------------5--7--5--------------3/4----------------:|
-------5--7---5-----------5--303--30----------------------:|


REST "walking on coals just trying to get through... 


"gone without a good reason for me to share..."
Chorus again (1:56)
--------------------------------------------------------------
--7---5-------------4/5-----7---5----------4/5555555555555----
----------5--7-7-------------------5-6/7----------------------
--------------------------------------------------------------


"Good for you..." 
repeat 4x
----------------------------------------------------------:|
----------------------------------------------------------:|
----5---------5~~~------5---------5--7--5-----------------:|
-------5--7---------------5--7--5-----------7-------------:|

*see ALTERNATE picking*



Bridge (2:35)
-------11--10-------------------------------------------------
---------------10---7--7--\5----5--5--/7----------------------
-------------------------------------------0000000---h3/44444~~
--------------------------------------------------------------


"..to fill.  
repeat 10x  [vary with *ALTERNATE picking*]
----------------------------------------------------------:|
----------------------------------------------------------:|
----5---------5~~~------5---------5--7--5-----------------:|
-------5--7---------------5--7--5-----------7-------------:|


REST "walking on coals..." (3:37 until end)












            
            
Suggest correction
Creating personal tab
Creating personal tab
You can edit any tab online and save it as your Personal.

You can edit, replace or remove any tab part or add personal notes – all changes will be seen only by you.

Personal tabs can be accessed anytime from any device, even offline.
Learn more »
Give kudos to tab author, rate the tab!
1 2 3 4 5
comments
print report bad tab
guest
You may want to rate the tab now too:
select rating
Wanna post a correction for this tab? Suggest correction