Oops, an error
Loading. Please wait.

The Big Bang Theory Theme Tab

124,953 views 39 this week
3 commentsread comments
1 2 3 4 5
x 17
add to favorites
launch autoscroll
font size
0
reset
how to read this tab
guitar tuner
Autoscroll
slow
fast
+/-
esc
set tempo
stop
Help us to improve Ultimate-Guitar.com Take our survey!
×
Author
First tab so i might not be very good at doing it yet.

            C                     D

e|--------------------------------|-------------------------|
b|----------1---------------------|--3----------------------|
g|--------------0---------------2-|-----2-------------------|
d|------2-------------------0-----|-------------------------|
a|---3----------------------------|-------------------------|
E|--------------------------------|-------------------------|

      G      D      Em

e|----3------2------0----------------|----------------------|
b|----3------3------0----------------|----------------------|
g|----0------2------0----------------|----------------------|
d|----0------0------2----------------|----------------------|
a|----2------0------2----------------|----------------------|
E|----3------0------0----------------|----------------------|

  C                     D

e|--------------------------------|-------------------------|
b|----------1---------------------|--3----------------------|
g|--------------0---------------2-|-----2-------------------|
d|------2-------------------0-----|-------------------------|
a|---3----------------------------|-------------------------|
E|--------------------------------|-------------------------|

      G      D      Em

e|----3------2------0----------------|----------------------|
b|----3------3------0----------------|----------------------|
g|----0------2------0----------------|----------------------|
d|----0------0------2----------------|----------------------|
a|----2------0------2----------------|----------------------|
E|----3------0------0----------------|----------------------|

And i think that's the intro. I'm not 100% but i think the rest of the song is just 
the C, D, G, D and Em, patteren in time with the singing.

Hope it's alright and any feedback would be great.
Suggest correction
comments
print report bad tab
3 comments total.
-1 reply
tottenham dave 10 Feb 05, 2009 06:18 PM

think it may be G D G

+2 reply
Chupacabraz 31 May 02, 2009 10:05 AM

The chords are more like:

e|----3------2------0----------------|----------------------|
b|----3------3------0----------------|----------------------|
g|----0------2------0----------------|----------------------|
d|-----------------------------------|----------------------|
a|-----------------------------------|----------------------|
E|----3------2------0----------------|----------------------|

Plucking all four strings simultaneously

0 reply
DikseunWarchief 16 Mar 17, 2013 01:30 AM

I play it C D G

guest
You may want to rate the tab now too:
select rating
Wanna post a correction for this tab? Suggest correction