Oops, an error
Loading. Please wait.

What A Good Boy Bass Tab

1,417 views 3 this week
no commentswrite comment
1 2 3 4 5
please rate
add to favorites
launch autoscroll
font size
0
reset
guitar tuner
Tab Pro tools
  • play this tab
  • loop segment
  • change instrument
  • show fretboard
  • metronome
×
Best way to learn
"What A Good Boy"
Autoscroll
slow
fast
+/-
esc
set tempo
stop
Contributor
-------------------------------------------------------------------------------
			What a Good Boy - Barenaked Ladies
-------------------------------------------------------------------------------

Tabbed By : mrscottz
e-mail: mrscottz@yahoo.com

this is a pretty easy tab I wrote it so everything is just on the two bottom strings.
I think it's easier to play than going to the d or the g string.

Tuning:EAGD

Verse I:

G|---------------------------------------------------------------|
D|---------------------------------------------------------------|
A|-------------------5-------5----------3------3-0-3-3-3-3-3-3-3-|
E|----3------3---------------------------------------------------|

G|-----------------------------------------------------------------------|
D|-----------------------------------------------------------------------|
A|---------------------5--------5--------3------3-0-3-3-3-3-3-3-3--------|
E|----0-2-3------3--------------------------------------------------0-2-3| Repeat verse x2
                                                                        
Chorus:

G|---------------------------------------------------------------|
D|---------------------------------------------------------------|
A|-------------------5-------5----------3------3-0-3-3-3-3-3-3-3-|
E|----3------3---------------------------------------------------|

G|-----------------------------------------------------------------------|
D|-----------------------------------------------------------------------|
A|---------------------5--------5--------3------3-0-3-3-3-3-3-3-3--------|
E|----0-2-3------3--------------------------------------------------0-2-3|

G|----------------------------------------------------|
D|----------------------------------------------------|
A|---------5---7-7-5-3--------------5---7-7-5-3-------|
E|----3-------------------------3---------------0-2-3-|

be with me tonight...

Verse II:
Chorus:
Verse III:
Chorus:
Verse IV:

On the last verse let the last note ring.

End

| /  slide up
| \  slide down
| h  hammer-on
| p  pull-off
| ~  vibrato
| +  harmonic
| x  Mute note
===============================================================================
comments
We did not receive enough feedback on this tab! Please rate:
print report bad tab
1 2 3 4 5
I want to post or [tab]
guest
You may want to rate the tab now too:
select rating
Please do not post tabs as comments. Select "correction" instead!