Oops, an error
Loading. Please wait.

Wind It Up Tab

version 1
version 1

Whole song

4,501 views 3 this week
3 commentsread comments
1 2 3 4 5
excellent!
x 3
add to favorites
launch autoscroll
font size
0
reset
how to read this tab
guitar tuner
Autoscroll
slow
fast
+/-
esc
set tempo
stop
Help us to improve Ultimate-Guitar.com Take our survey!
×
Author
Difficulty
Tuning
intermediate
D A D G B E
-----------------------------------------------------------------------------------
                                            Wind It Up - Barenaked Ladies
-----------------------------------------------------------------------------------
Tabbed by: Mitch Rushton
Email:mitchr911@aol.com

Tuning:DADGBe

Intro:

e|-----------------------------------------------------------|
B|--3-3----3--------------3--3-3-----3-----------------------|
G|--2-2----2----x---------2--2-2-----2-----------------------|x4
D|--0-0----0----x------0-----0-0-----0------0-0h2p0----------|
A|--0-----------x--0h3-------0----------0h3----------3-------|
D|------3b------x------------------3b------------------------|

Verse:

e|------------------------------------------------------------------------|
B|--3------3------------3---3--3------3------------------3--/5---3-3------|
G|--2------2--x---------2---2--2------2------------------2---0---0-0------|x4
D|--0------0--x------0------0--0------0-------0-0h2p0----0---0---0-0------|
A|--0------0--x-0h3---------0------------0h3-----------3---------2-3------|
D|-----3b-----x--------------------3b-----------------------/5------------|

then repeat the intro once

Pre-chorus: ("Hearts on fire...")

e|-------------------------------------------------------------------|
B|--3-3-3--/5--3-3------3-------------3---3-3-----3------------------|
G|--0-0-0---0--2-2------2--x----------2---2-2-----2------------------|x2
D|--0-0-0---0--0-0------0--x-------0------0-0-----0------0-0h2p0-----|
A|--2-3-2------0-----------x--0h3---------0----------0h3-------------|
D|---------/5-------3b-----x-------------------3b--------------------|

Chorus: ("Wind me up...")

e|---------------------------------------------0-0-----0-0---0-0-----0-0--|
B|--3--3-x--3--3-3-3-x-x--5-5-x--5--5-5-x------3-3-----3-3---3-3-----3-3--|
G|--0--0-x--0--0-0-0-x-x--0-0-x--0--0-0-x------0-0-----0-0-0-0-0-----0-0--|
D|--2--2-x--2--2-2-2-x-x--0-0-x--0--0-0-x--0h2-----2h4-----------2h4------|
A|--3--3-x--3--3-3-3-x-x------x---------x---------------------------------|
D|------------------------5-5-x--5--5-5-x---------------------------------|

e|----0-0---0-0---0-0----|
B|----3-3---3-3---3-3----|
G|----0-0---0-0---0-0----|x2
D|--2-----0--------------|
A|--------------0--------|
D|-----------------------|

"Wind it up."

e|-------------------------------------|
B|--3--3-x--3--3-3-3-x-x-5--5----5-----|
G|--0--0-x--0--0-0-0-x-x-0--0----0--x--|
D|--2--2-x--2--2-2-2-x-x-0--0----0--x--|
A|--3--3-x--3--3-3-3-x-x------------x--|
D|-----------------------5--5--5----x--|

Bridge: ("If you are leaving...")

e|--------------------------------|
B|--3-x--3--x-x--5-5--3--3-3-3-x--|
G|--2-x--0--x-x--0-0--2--2-2-2-x--|x4
D|--0-x--2--x-x--0-0--0--0-0-0-x--|
A|----x--3--x-x----------------x--|
D|---------------5-5--------------|

Guitar Solo:

e|-----------------------------------------------------------------------|
B|-----------------------------------------------------------------------|
G|---------------------12-11h12p11h12p11/14~~14b16-14-12h14p12-11-12\\\--|
D|--9-10~--10/12-12~~----------------------------------------------------|
A|-----------------------------------------------------------------------|
D|-----------------------------------------------------------------------|

e|--------------------------------------------------------14-15~---|
B|----------------------12b14r12p10-14~---17b19r17--15h17----------|
G|-----------------------------------------------------------------|
D|--4h5h7----------------------------------------------------------|
A|-----------------------------------------------------------------|
D|---------5-4p0h4p0-----------------------------------------------|

e|--15p14----17-14h15p14----17b19-14--15h17p15p14h15p14----14-----|
B|--------15-------------15-----------------------------17----17--|
G|----------------------------------------------------------------|
D|----------------------------------------------------------------|
A|----------------------------------------------------------------|
D|----------------------------------------------------------------|

e|---------------------------|
B|--15h17p15p14h15p14h15\\\--|
G|---------------------------|
D|---------------------------|
A|---------------------------|
D|---------------------------|

and thats it! have fun and keep listening to BNL. feel free to leave any comments/corrections.
peace.

| /  slide up
| \  slide down
| h  hammer-on
| p  pull-off
| ~  vibrato
| +  harmonic
| x  Mute note
| b  Bend note
| r  Bend release
===============================================================================
Suggest correction
Give kudos to tab author, rate the tab!
1 2 3 4 5
comments
print report bad tab
3 comments total.
+1 reply
RCH15 45 wrote on January 28 2009, 02:01 pm

Great tab!

+2 reply
biker521 80 wrote on February 23 2009, 10:19 pm

yeah, this is really good. the only thing i see wrong is the 3 on the d.
-in the beginning riff, the
d|----3-- should be d|----3b--

not entirely sure, but thats the way i pay it.

+1 reply
biker521 80 wrote on February 23 2009, 10:19 pm

yeah, this is really good. the only thing i see wrong is the 3 on the d.
-in the beginning riff, the
d|----3-- should be d|----3b--

not entirely sure, but thats the way i pay it.

guest
You may want to rate the tab now too:
select rating
Wanna post a correction for this tab? Suggest correction