Oops, an error
Loading. Please wait.

The Loom Tab

591 views 1 this week
no commentswrite comment
1 2 3 4 5
3 more votes to show rating
add to favorites
launch autoscroll
font size
0
reset
how to read this tab
guitar tuner
Autoscroll
slow
fast
+/-
esc
set tempo
stop
Help us to improve Ultimate-Guitar.com Take our survey!
×
Author
---------------------------------------------------------------------
                     THE LOOM : Bark Psychosis
---------------------------------------------------------------------
Tabbed by: lifer
Email:

Tuning: standard

Part A
e|-----------7-----------7------------------7------------------------|
B|-------------------------10-------------8--------8---7-------------|
G|---------9-----------9------9---------7----------------7-----------|
D|----7-10--------7-10----------10----9----------9---9-----10--------|
A|--0-----------0-------------------0----------0--------------0------|
E|-------------------------------------------------------------------|

Part B
e|-----------7-----------7------------------7-------10---8-7---------|
B|-------------------------10-------------8---8--------7-----7-------|
G|---------9-----------9------9---------7-------7--------------7-----|
D|----7-10--------7-10----------10----9--------------------------9---|
A|--0-----------0-------------------0-------------0------------------|
E|-------------------------------------------------------------------|

Part C
e|-----------7------------------7-----------------7------------------|
B|-------------10-----------------10------------8---8---------8---7--|
G|---------9------9-----------9------9--------7-------7--------------|
D|----7-10----------10---7-10----------10---9-----------9---9---9----|
A|--0------------------0------------------0---------------0----------|
E|-------------------------------------------------------------------|

Part C cont..
e|-------------------------------------------------------------------|
B|-------------------------------------------------------------------|
G|--7----------------------------------------------------------------|
D|----9--------------------------------------------------------------|
A|------0------------------------------------------------------------|
E|-------------------------------------------------------------------|

Order:

Part A
Part B
repeat
Part C
Part B
************************************

| /   slide up
| \   slide down
| h   hammer-on
| p   pull-off
| ~   vibrato
| +   harmonic
| x   Mute note
| b   Bend
| pb  Pre-bend
| br  Bend release
| pbr Pre-bend release
| brb Bend release bend

************************************
Suggest correction
Give kudos to tab author, rate the tab!
1 2 3 4 5
comments
print report bad tab
guest
You may want to rate the tab now too:
select rating
Wanna post a correction for this tab? Suggest correction