Oops, an error
Loading. Please wait.

Never Alone tab

version 2
version 2

Interactive

8,697 views 1 this week
no commentswrite comment
1 2 3 4 5
1 last vote to show rating
add to favorites
×
Save as Personal and add changes to this tab that will be seen only by you. Learn more ›
×
You can save this tab as Personal to edit and correct it or add notes. All changes will be seen only by you. Learn more »
launch autoscroll
font size
0
reset
how to read this tab
guitar tuner
edit
Autoscroll
slow
fast
+/-
esc
set tempo
stop
Difficulty
intermediate
I was listening to this song and I wanted to see if my ears were as good as i thought. I 
2 guitars while playing this and i just thought i would put it up here. Leave comments 
if it's good or bad. I tried to get it as close as i can.

Intro (piano)
Em	C	D	B

  Em		    C	          G    D
I waited for you, 		today
	Em		C	   G   D
But you didn’t show,		no no no
  Em		C		  G    D
I needed you 			today
   Em	 C	    G	D
So where did you go
C
You told me to call
Em
Said you’d be there
C
And though I haven’t seen you
G	   A    B
Are you still there?

Chorus
Em      C	 G    A
I cried out with no reply
    C      G	    A	  B
and I cant feel you by my side
   Em        C	      G	     A
so I’ll hold tight to what I know
       C	    A	 B
You’re here, and I’m never alone

Guitar solo
   Guitar 1
     Em	             C		     G		     A    B
E|-----------------------------------3-3-3-3-3-3-3-3---------|
B|-------------------1-1-1-1-1-1-1-1-0-0-0-0-0-0-0-0-2--2-4--|
G|-------------------0-0-0-0-0-0-0-0-0-0-0-0-0-0-0-0-2--2-4--|
D|---2-2-2-2-2-2-2-2-2-2-2-2-2-2-2-2-0-0-0-0-0-0-0-0-2--2-4--|
A|---2-2-2-2-2-2-2-2-3-3-3-3-3-3-3-3-2-2-2-2-2-2-2-2------2--|
E|-----------------------------------3-3-3-3-3-3-3-3---------|2x
 |[Guitar 1 right here is counted in 16th notes like: 1 e & a]
 |Guitar 2						     |
D|-----------------------------------------------------------|
A|---7\------7-9-10--7\------7-9-10--7\------7-9-10-12--14---|
E|-----------------------------------------------------------|2x

And though I cannot see you
And I cant explain why
Such a deep deep reassurance
   Em     C      G      D
E|---------------xxx3---xxx2--|
B|--------xxx1---xxx0---xxx3--|
G|--------xxx0---xxx0---xxx2--|
D|-xxx2---xxx2---xxx0---------|
A|-xxx2---xxx3---xxx2---------|
E|---------------xxx3---------|3x

You’ve placed in my life, oh
E|---------------xxx3-----xxxxxx---|
B|--------xxx1---xxx0-----xxxxxx---|
G|--------xxx0---xxx0-----xxxxxx---|
D|-xxx2---xxx2---xxx0--------------|
A|-xxx2---xxx3---xxx2--------------|
E|---------------xxx3--------------|

C
We cannot separate,
Em
Your part of me
C
And though your invisible, I’ll
G 	 A  B
trust the unseen

Chorus
Guitar Solo
Bridge 2 (no guitar)

E|-xx--|
B|-xx--|
G|-xx--|
D|-xx--|
A|-xx--|
E|-xx--|

Chorus

Guitar Solo
 Guitar 1
     Em	             C		     G		     A    B
E|-----------------------------------3-3-3-3-3-3-3-3--------------|
B|-------------------1-1-1-1-1-1-1-1-0-0-0-0-0-0-0-0-2--2-4-------|
G|-------------------0-0-0-0-0-0-0-0-0-0-0-0-0-0-0-0-2--2-4-------|
D|---2-2-2-2-2-2-2-2-2-2-2-2-2-2-2-2-0-0-0-0-0-0-0-0-2--2-4-------|
A|---2-2-2-2-2-2-2-2-3-3-3-3-3-3-3-3-2-2-2-2-2-2-2-2------2-------|
E|-----------------------------------3-3-3-3-3-3-3-3--------------|
 |  [Guitar 1 right here is counted in 16th notes like: 1 e & a]  |
 |Guitar 2						      	  |
D|------------------------------------------------------------------|
A|-----------15~14-12--------15~14-12--------15~14-12---15~14-12----|
E|------------------------------------------------------------------|

 Guitar 1
     Em	             C		     G		     A    B    Em
E|-----------------------------------3-3-3-3-3-3-3-3-----------0--|
B|-------------------1-1-1-1-1-1-1-1-0-0-0-0-0-0-0-0-2--2-4----0--|
G|-------------------0-0-0-0-0-0-0-0-0-0-0-0-0-0-0-0-2--2-4----0--|
D|---2-2-2-2-2-2-2-2-2-2-2-2-2-2-2-2-0-0-0-0-0-0-0-0-2--2-4----2--|
A|---2-2-2-2-2-2-2-2-3-3-3-3-3-3-3-3-2-2-2-2-2-2-2-2------2----2--|
E|-----------------------------------3-3-3-3-3-3-3-3-----------0--|
 |   [Guitar 1 right here is counted in 16th notes like: 1 e & a] |
 |Guitar 2					                  |
E|----------------------------------------------------------------|
B|-------------------------------------------------------------0--|
G|-------------------------------------------------------------0--|
D|-------------------------------------------------------------2--|
A|-----------15~14-12--------15~14-12--------15~14-12---15~14--2--|
E|-------------------------------------------------------------0--|

            
            
Suggest correction
Creating personal tab
Creating personal tab
You can edit any tab online and save it as your Personal.

You can edit, replace or remove any tab part or add personal notes – all changes will be seen only by you.

Personal tabs can be accessed anytime from any device, even offline.
Learn more »
Give kudos to tab author, rate the tab!
1 2 3 4 5
comments
print report bad tab
guest
Wanna post a correction for this tab? Suggest correction