Oops, an error
Loading. Please wait.

Happy Birthday Tab

64,279 views 6 this week
6 commentsread comments
1 2 3 4 5
x 14
add to favorites
launch autoscroll
font size
0
reset
how to read this tab
guitar tuner
Autoscroll
slow
fast
+/-
esc
set tempo
stop
Help us to improve Ultimate-Guitar.com Take our survey!
×
Author
i listened to the other 'Happy Birthday' songs and they sounded right, but this 
one i think sounds better. im 100% sure this song is correct! enjoy.







E|-----------------------|------------------------|--------------------|
B|-----------------------|------------------------|--------------------|
G|-----------------------|------------------------|--------------------|
D|-------------3-2-------|--------------5-3-------|--------9-7---------|
A|--3-3-5-3--------------|---3-3-5-3--------------|-3-3---------8-7-5--|
E|-----------------------|------------------------|--------------------|



E|-----------------------|
B|-----------------------|
G|---10-10--9--5--7--5---|
D|-----------------------|
A|-----------------------|
E|-----------------------|
Suggest correction
comments
print report bad tab
6 comments total. Showing first comments.
+2 reply
maliblu 10 May 13, 2009 08:08 PM

doesnt sound right

+2 reply
travis3826 82 May 23, 2009 12:39 AM

100%???
try this:

E|-----------------------|------------------------|--------------------|
B|-----------------------|------------------------|--------------------|
G|-----------------------|------------------------|--------------------|
D|-------------3-2-------|--------------5-3-------|-------10-7---------|
A|--3-3-5-3--------------|---3-3-5-3--------------|-3-3---------8-7-5--|
E|-----------------------|------------------------|--------------------|

E|-----------------------|
B|-----------------------|
G|---8--8---7--3--5--3---|
D|-----------------------|
A|-----------------------|
E|-----------------------|

+1 reply
jennylou123 10 May 23, 2009 12:15 PM

Erm sorry you may need to check your tab. I think you changed key halfway through.

guest
You may want to rate the tab now too:
select rating
Wanna post a correction for this tab? Suggest correction