Oops, an error
Loading. Please wait.

March To The Sea tab

version 1
version 1

Whole song

Interactive

19,010 views 12 this week
7 commentsread comments
1 2 3 4 5
x 11
add to favorites
×
Save as Personal and add changes to this tab that will be seen only by you. Learn more ›
×
You can save this tab as Personal to edit and correct it or add notes. All changes will be seen only by you. Learn more »
launch autoscroll
font size
0
reset
how to read this tab
guitar tuner
edit
Autoscroll
slow
fast
+/-
esc
set tempo
stop
Tuning: D Tuning

[Intro]
D|----------------5-3-2-0-------------------|
A|-3-0h3p0------3---------0-----------------|
F|------------------------------------------|    
C|------------------------------------------|
G|------------------------------------------|
D|-3-------3-3--3-2-2-0-----2~--------------|(x2)

[Verse]
(Guitar 1) (John Baizley)
D|-------------------------------------------------------------|
A|-------------------------------------------------------------|
F|-------------------------------------------------------------|
C|-------------------------------------------------------------| 
G|-------------------------------------------------------------|
D|3333333333333333-777777-12121212121212121212121212--14141414-|(x4)

(Guitar 2)
(Peter Adams) (2nd part of the verse)
D|------------------------------------------------------------|
A|------------------------------------------------------------|
F|------------------------------------------------------------|  
C|-9999999999999999-1212121212-99999999999999999-7777777------|
G|------------------------------------------------------------|
D|------------------------------------------------------------|(x2)

[Chorus]
D|--------------------------------|
A|--------------------------------|
F|--------------------------------|
C|-5-----9----14-----12-----------|
G|-5-x12-9-x6-14-x12-12-x6--------|
D|-3-----7----12-----10-----------|(x2)

[Verse]
(Guitar 1) (John Baizley)
D|-------------------------------------------------------------|
A|-------------------------------------------------------------|
F|-------------------------------------------------------------|
C|-------------------------------------------------------------| 
G|-------------------------------------------------------------|
D|3333333333333333-777777-12121212121212121212121212--14141414-|(x4)

(Guitar 2) 
(Peter Adams) 
(2nd part of the verse - this is different from the 1st verse)
D|---------------------------------------------------------------|
A|---------------------------------------------------------------|
F|---------------------------------------------------------------|
C|-9999999999999999-1212121212-99999999999999999-1212121212------|
G|---------------------------------------------------------------|
D|---------------------------------------------------------------|

D|---------------------------------------------------------------|
A|---------------------------------------------------------------|
F|---------------------------------------------------------------|
C|-9999999999999999-1212121212-99999999999999999-7777777---------|
G|---------------------------------------------------------------|
D|---------------------------------------------------------------|

[Chorus]
D|--------------------------------|
A|--------------------------------|
F|--------------------------------|
C|-5-----9----14-----12-----------|
G|-5-x12-9-x6-14-x12-12-x6--------|
D|-3-----7----12-----10-----------|(x2)

[Break]
D|------------------3-2-0-------------------|
A|-3-0h3p0------3-0-------0-----------------|
F|------------------------------------------|    
C|------------------------------------------|
G|------------------------------------------|
D|-3-------3-3--3-2-2-0-----2~--------------|(x2)

[Solo]
D|---------------------15-14-14h15p14--------------|
A|-15--12h15p12--15-12----------------12--13-------|
F|-------------------------------------------------|
C|-------------------------------------------------|
G|-------------------------------------------------|
D|-------------------------------------------------|

D|---------------------16b-16b-(15)----------------|
A|-15--12h14p12--15-12--------------12-13----------|
F|-------------------------------------------------|
C|-------------------------------------------------|
G|-------------------------------------------------|
D|-------------------------------------------------|

[Chorus]
D|--------------------------------|
A|--------------------------------|
F|--------------------------------|
C|-5-----9----14-----12-----------|
G|-5-x12-9-x6-14-x12-12-x6--------|
D|-3-----7----12-----10-----------|(x2)


************************************

| h    Hammer-on
| p    Pull-off
| ~    Vibrato
| (n)  Ghost note
| b    Bend

************************************

            
            
Suggest correction
Creating personal tab
Creating personal tab
You can edit any tab online and save it as your Personal.

You can edit, replace or remove any tab part or add personal notes – all changes will be seen only by you.

Personal tabs can be accessed anytime from any device, even offline.
Learn more »
comments
print report bad tab
7 comments total. Showing first comments.
0 reply
WanderLuster 10 Jul 17, 2012 02:44 PM

The tab should be in standard

+1 reply
pakopako 834 Jul 17, 2012 11:03 PM

I saw a live performance, and they play the song in D standard. But yes, this could be played also in standard but the intro wouldn't sound good. Anyway, what do you think about the tab?

0 reply
WanderLuster 10 Jul 18, 2012 11:59 PM

the tab sounds good. my bad i thought it said drop d

guest
You may want to rate the tab now too:
select rating
Wanna post a correction for this tab? Suggest correction