Oops, an error
Loading. Please wait.

Oer Hell And Hide Bass Tab

252 views 1 this week
no commentswrite comment
1 2 3 4 5
please rate
add to favorites
launch autoscroll
font size
0
reset
guitar tuner
Autoscroll
slow
fast
+/-
esc
set tempo
stop
Help us to improve Ultimate-Guitar.com Take our survey!
×
Author
Artist:      Baroness
Song:        O'er Hell and Hide
Album:       Blue Record
Tab Author:  J. Wagner
Note:        Enjoy!  Please, if you have any corrections or suggestion e-mail me,
             I give full credit for those willing to better my tabs.
E-Mail:      ThirteenStrings@Gmail.com
Site:        www.ThirteenStrings.com



Acoustic Intro

(0:37)
G|------------------|
D|------------------|
A|------------------|
E|------------------|
B|-3----------------|

                               x7
G|-------------------------------|----------|
D|o-----------------------------o|----------|
A|-------------------------------|----------|
E|o-----------------------------o|-0---1----|
B|--3--3-3-3--3-3-3--3-3-3--3-3--|--------2-|

                               x7
G|-------------------------------|----------|
D|o-----------------------------o|----------|
A|-------------------------------|----------|
E|o-----------------------------o|-0---1----|
B|--3--3-3-3--3-3-3--3-3-3--3-3--|--------2-|

(1:06) x2
G|---------------------------------------------------------|
D|---------------------------------------------------------|
A|---------------------------------------------------------|
E|---------------0--0-0-0--0-0-1--1-1-1--1-5-5--5-5-5--5-5-|
B|-3--3-3-3--3-3-------------------------------------------|

G|-----------------------------------------|
D|-----------------------------------------|
A|-----------------------------------------|
E|-6--6-6-6--6-6-5--5-5-5--5-5-0----1------|
B|-------------------------------------2---|

(1:19)
G|-------------------------------------------|
D|-5--5-5-5--5-5-3--3-3-3--3-3---------------|
A|-----------------------------6--6-6-6--6-6-|
E|-------------------------------------------|
B|-------------------------------------------|

G|------------------------------------------------------|
D|------------------------------------------------------|
A|---------------6--6-6-6--6-6---------------3---4------|
E|-6--6-6-6--6-6---------------6--6-6-6--6-6--------5---|
B|------------------------------------------------------|

(1:25)
G|------------------------------------------------------|
D|------------------------------------------------------|
A|-5-5--3-5-5--3-5-5--3-5-5--3-6-6--5-6-6--5-6-6--5-6-6-|
E|------------------------------------------------------|
B|------------------------------------------------------|

G|--------------------------------------------------------|
D|-------------------------------5-5--3-5-5--3-5-5--3-5-5-|
A|-5-6-6--5-6-6--5-6-6--5-6-6--5--------------------------|
E|--------------------------------------------------------|
B|--------------------------------------------------------|

G|----------------------------|
D|-3-5-5--3-5-5--3-5-5--3-5-5-|
A|----------------------------|
E|----------------------------|
B|----------------------------|

(1:42) x2
G|-------5-------------------------------|
D|---------5-----------5-3---------------|
A|-3--6-------3-5-3--------6-----3-5-6-6-|
E|------------------3---------6----------|
B|---------------------------------------|

(1:56) x2
G|-----3-5/8-7--3-5/8-7-|-------------------|
D|---5------------------|---5-8-------5-8---|
A|-6--------------------|-6---------6-------|
E|----------------------|-------------------|
B|----------------------|--------3--------3-|

(2:10) x2
G|-------5-------------------------------|
D|---------5-----------5-3---------------|
A|-3--6-------3-5-3--------6-----3-5-6-6-|
E|------------------3---------6----------|
B|---------------------------------------|

(2:23) x2
G|---------------------------------|---------------------------------|
D|---------------------------------|---------------------------------|
A|-6-6-6---------------------------|-5-5-5-------------1-1-1-----1-1-|
E|-------6-6-6-8-8-8-6-6-6-5-5-6-6-|-------3-3-3-1-1-1-------1-1-----|
B|---------------------------------|---------------------------------|

(2:36) x5
G|---------------------------------------------------------|
D|---------------------------------------------------------|
A|---------------------------------------------------------|
E|---------------------------------------------------------|
B|-4--4-4-4--4-4-4--4-4-4--4-4-4--4-4-4--4-4-4--4-4-4--4-4-|

G|---------------------------------------------------------|
D|---------------------------------------------------------|
A|---------------------------------------------------------|
E|-2--2-2-2--2-2-2--2-2-2--2-2-1--1-1-1--1-1-1--1-1-1--1-1-|
B|---------------------------------------------------------|

(3:13)
G|---------------------------------------------------------|
D|---------------------------------------------------------|
A|---------------------------------------------------------|
E|---------------------------------------------------------|
B|-4--4-4-4--4-4-4--4-4-4--4-4-4--4-4-4--4-4-4--4-4-4--4-4-|

G|-----------|
D|-----------|
A|-----------|
E|-2----1----|
B|-----------|

(3:17) x4
G|---------------------------------|---------------------------------|
D|---------------------------------|---------------------------------|
A|-6-6-6---------------------------|-5-5-5-------------1-1-1-----1-1-|
E|-------6-6-6-8-8-8-6-6-6-5-5-6-6-|-------3-3-3-1-1-1-------1-1-----|
B|---------------------------------|---------------------------------|

(3:44)
G|-----------------------------|
D|-----------------------------|
A|-5-5--3-5-5--3-5-5--3-5-5--3-| Until End
E|-----------------------------|
B|-----------------------------|

Suggest correction
What's this?
You can suggest a correction to this tab. Community and Mods will review your correction and vote to approve or reject it.
comments
We did not receive enough feedback on this tab! Please rate:
print report bad tab
1 2 3 4 5
guest
You may want to rate the tab now too:
select rating
Please do not post tabs as comments. Select "correction" instead!