Oops, an error
Loading. Please wait.

Sea Lungs bass

version 1
version 1

Whole song

869 views 1 this week
2 commentsread comments
1 2 3 4 5
3 more votes to show rating
add to favorites
×
Save as Personal and add changes to this tab that will be seen only by you. Learn more ›
×
You can save this tab as Personal to edit and correct it or add notes. All changes will be seen only by you. Learn more »
launch autoscroll
font size
0
reset
guitar tuner
edit
Autoscroll
slow
fast
+/-
esc
set tempo
stop
Author
Difficulty
Artist:      Baroness
Song:        Sea Lungs
Album:       Yellow & Green Disc 1
Tab Author:  J. Wagner
Note:        Enjoy!  Please, if you have any corrections or suggestion e-mail me,
             I give full credit for those willing to better my tabs.
E-Mail:      ThirteenStrings@Gmail.com
Site:        www.ThirteenStrings.com


(0:00) Intro
G|-----7----------7--------7----------7---|
D|----------------------------------------|
A|-5-5----5-5-5-5---5--5-5----5-5-5-5---5-|
E|----------------------------------------|

G|----------------------------------------|
D|----------------------------------------|
A|-3-3-3--3-3-3-3-3-3--3-3-3--3-3-3-3-3-3-|
E|----------------------------------------|

G|----------------------------------------|
D|-----5----------5--------5----------5---|
A|----------------------------------------|
E|-3-3----3-3-3-3---3--3-3----3-3-3-3---3-|

G|-----3----------3-----------------------|
D|----------------------------------------|
A|-1-1----1-1-1-1---1---------------------|
E|---------------------1-1-1--1-1-1-1-1-1-|

G|-----7----------7--------7----------7---|
D|----------------------------------------|
A|-5-5----5-5-5-5---5--5-5----5-5-5-5---5-|
E|----------------------------------------|

G|----------------------------------------|
D|----------------------------------------|
A|---------------------4-4-4--4-4-4-4-4-4-|
E|-5-5-5--5-5-5-5-5-5---------------------|

G|----------------------------------------|
D|----------------------------------------|
A|-1-1-1--1-1-1-1-1-1--1-1-1--1-1-1-1-1-1-|
E|----------------------------------------|

G|-----------------------------------------------------------------|
D|-----------------------------------------------------------------|
A|-----------------3-3-3-3-3-3-3-3-4-4-4-4-4-4-4-4-4-4-4-4-4-4-4-4-|
E|-1-1-1-1-1-1-1-1-------------------------------------------------|

G|--------7--------------7--------|
D|-----7--------------7-----------|
A|--5--------------5--------------|
E|--------------------------------|

(0:38) Verse and Chorus x2
G|---------------------------------|---------------------------------|
D|-.-------.-------.-------.-------|-.-------.-------.-------.-------|
A|-5-5-5-5-5-5-5-5-5-5-5-5-5-5-5-5-|-3-3-3-3-3-3-3-3-3-3-3-3-3-3-3-3-|
E|---------------------------------|---------------------------------|

G|---------------------------------|---------------------------------|
D|-.-------.-------.-------.-------|-.-------.-------.-------.-------|
A|---------------------------------|-1-1-1-1-1-1-1-1-----------------|
E|-3-3-3-3-3-3-3-3-3-3-3-3-3-3-3-3-|-----------------1-1-1-1-1-1-1-1-|

G|---------------------------------|---------------------------------|
D|-.-------.-------.-------.-------|-.-------.-------.-------.-------|
A|-5-5-5-5-5-5-5-5-5-5-5-5-5-5-5-5-|-----------------4-4-4-4-4-4-4-4-|
E|---------------------------------|-5-5-5-5-5-5-5-5-----------------|

G|---------------------------------|---------------------------------|
D|-.-------.-------.-------.-------|-.-------.-------.-------.-------|
A|-1-1-1-1-1-1-1-1-1-1-1-1-1-1-1-1-|-----------------3-3-3-3-3-3-3-3-|
E|---------------------------------|-1-1-1-1-1-1-1-1-----------------|

G|---------------------------------|
D|-.-------.-------.-------.-------|
A|-4-4-4-4-4-4-4-4-4-4-4-4-4-4-4-4-|
E|---------------------------------|

G|--------7-----------------------------------|
D|-----7------7-------------------------------|
A|--5-----------5-----5--5-----5--5--7--5--3--|
E|--------------------------------------------|

G|------------------------------------|
D|--------7---------------------------|
A|-----5-------8--8----7--8--7--8--7--|
E|--5---------------------------------|

G|--------------------------------------------------|
D|--------------------------------------------------|
A|--------------------------------------------------|
E|--3--3----3--6--5--3--6----3--3----3--6--5--3--6--|

G|----------------------------|
D|----------------------------|  Rest and then
A|--0--0--0--1----1--1--1--3--|  Repeat Verse and Chorus
E|----------------------------|

(2:14) Guitar Solo with Intro Riff
G|-----7----------7--------7----------7---|
D|----------------------------------------|
A|-5-5----5-5-5-5---5--5-5----5-5-5-5---5-|
E|----------------------------------------|

G|----------------------------------------|
D|----------------------------------------|
A|-3-3-3--3-3-3-3-3-3--3-3-3--3-3-3-3-3-3-|
E|----------------------------------------|

G|----------------------------------------|
D|-----5----------5--------5----------5---|
A|----------------------------------------|
E|-3-3----3-3-3-3---3--3-3----3-3-3-3---3-|

G|-----3----------3-----------------------|
D|----------------------------------------|
A|-1-1----1-1-1-1---1---------------------|
E|---------------------1-1-1--1-1-1-1-1-1-|

G|-----7----------7--------7----------7---|
D|----------------------------------------|
A|-5-5----5-5-5-5---5--5-5----5-5-5-5---5-|
E|----------------------------------------|

G|----------------------------------------|
D|----------------------------------------|
A|---------------------4-4-4--4-4-4-4-4-4-|
E|-5-5-5--5-5-5-5-5-5---------------------|

G|----------------------------------------|
D|----------------------------------------|
A|-1-1-1--1-1-1-1-1-1--1-1-1--1-1-1-1-1-1-|
E|----------------------------------------|

G|-----------------------------------------------------------------|
D|-----------------------------------------------------------------|
A|-----------------3-3-3-3-3-3-3-3-4-4-4-4-4-4-4-4----::Rest::-----|
E|-1-1-1-1-1-1-1-1-------------------------------------------------|

(2:50) Outro x2
G|--------7-----------------------------------|
D|-----7------7-------------------------------|
A|--5-----------5-----5--5-----5--5--7--5--3--|
E|--------------------------------------------|

G|------------------------------------|
D|--------7---------------------------|
A|-----5-------8--8----7--8--7--8--7--|
E|--5---------------------------------|

G|--------------------------------------------------|
D|--------------------------------------------------|
A|--------------------------------------------------|
E|--3--3----3--6--5--3--6----3--3----3--6--5--3--6--|

G|----------------------------|
D|-------------------------*--| *Very staccato
A|--0--0--0--1----1--1--1--3--|  second time
E|----------------------------|

            
            
Suggest correction
Creating personal tab
Creating personal tab
You can edit any tab online and save it as your Personal.

You can edit, replace or remove any tab part or add personal notes – all changes will be seen only by you.

Personal tabs can be accessed anytime from any device, even offline.
Learn more »
Give kudos to tab author, rate the tab!
1 2 3 4 5
comments
print report bad tab
2 comments total.
0 reply
saiyuki411 10 Sep 30, 2015 11:55 AM

What's the rhythm pattern on the chorus? Is it repeated triplets?

guest
You may want to rate the tab now too:
select rating
Wanna post a correction for this tab? Suggest correction