Oops, an error
Loading. Please wait.

Sea Lungs bass

version 2
version 2

Whole song

342 views 1 this week
1 commentread comment
1 2 3 4 5
2 more votes to show rating
add to favorites
×
Save as Personal and add changes to this tab that will be seen only by you. Learn more ›
×
You can save this tab as Personal to edit and correct it or add notes. All changes will be seen only by you. Learn more »
launch autoscroll
font size
0
reset
guitar tuner
edit
Autoscroll
slow
fast
+/-
esc
set tempo
stop
Sea Lungs - Baroness

This is a relatively simple song. The most important part to making it sound good 
is getting the rhythm down. This song is tabbed in drop D.

#h# - Hammer-on
#p# - Pull-off
#b - Bend Note
/ or \ - Slide
* - Sustain Note

Introduction:
G |------------------|------------------|------------------|------------------|
D |------------------|------------------|------------------|------------------|
A |-5-5-5-55-55-5-55-|-5-5-5-55-55-5-55-|-3-3-3-33-33-3-33-|-3-3-3-33-33-3-33-|
D |------------------|------------------|------------------|------------------|

G |------------------|------------------|------------------|------------------|
D |------------------|------------------|------------------|------------------|
A |------------------|------------------|-1-1-1-11-11-1-11-|------------------|
D |-5-5-5-55-55-5-55-|-5-5-5-55-55-5-55-|------------------|-3-3-3-33-33-3-33-|

G |------------------|------------------|------------------|------------------|
D |------------------|------------------|------------------|------------------|
A |-5-5-5-55-55-5-55-|-5-5-5-55-55-5-55-|-0-0-0-00-00-0-00-|-4-4-4-44-44-4-44-|
D |------------------|------------------|------------------|------------------|

G |------------------|------------------|------------------|------------------|
D |------------------|------------------|------------------|------------------|
A |-1-1-1-11-11-1-11-|-1-1-1-11-11-1-11-|------------------|-3-3-3-33-33-3-33-|
D |------------------|------------------|-3-3-3-33-33-3-33-|------------------|

G |------------------|------------------|------------------|------------------|
D |------------------|------------------|---------------0*-|-(0)--------------|
A |-4-4-4-44-44-4-44-|-4-4-4-44-44-4-44-|--------0*--------|------------------|
D |------------------|------------------|-0*---------------|------------------|

G |------------------|------------------|
D |------------------|------------------|
A |--------0*--------|------------------|
D |-0*------------0*-|-(0)--------------|

Verse:
G |-----------------|-----------------|-----------------|-----------------|
D |-----------------|-----------------|-----------------|-----------------|
A |-5-----5-5-----5-|-5-----5-5-----5-|-3-----3-3-----3-|-3-----3-3-----3-|
D |-----------------|-----------------|-----------------|-----------------|

G |-----------------|-----------------|-----------------|-----------------|
D |-----------------|-----------------|-----------------|-----------------|
A |-----------------|-----------------|-1-----1-1-----1-|-----------------|
D |-5-----5-5-----5-|-5-----5-5-----5-|-----------------|-3-----3-3-----3-|

G |-----------------|-----------------|-----------------|-----------------|
D |-----------------|-----------------|-----------------|-----------------|
A |-5-----5-5-----5-|-5-----5-5-----5-|-0-----0-0-----0-|-4-----4-4-----4-|
D |-----------------|-----------------|-----------------|-----------------|

G |-----------------|-----------------|-----------------|-----------------|
D |-----------------|-----------------|-----------------|-----------------|
A |-1-----1-1-----1-|-1-----1-1-----1-|-----------------|-3-----3-3-----3-|
D |-----------------|-----------------|-3-----3-3-----3-|-----------------|

G |-----------------|-----------------|
D |-----------------|-----------------|
A |-4-----4-4-----4-|-4-----4-4-----4-|
D |-----------------|-----------------|

Chorus:
G |-----------------|-----------------|-------2*--------|-----------------|
D |-------0*--------|-----------------|-------3*--------|-3-3-2h3---2-3-2-|
A |---0*------------|-5-5-3h5---3-5-3-|---3*------------|-----------------|
D |-0*------------0-|-----------------|-3*--------------|-----------------|

G |-----------------|-----------------|-----------------|-----------------|
D |-----------------|-----------------|-----7-8*--------|-----------------|
A |---0-------------|-----------------|---5-------------|-0-1-3-5*--------|
D |-5---5*----------|-5-5-7-8---7-----|-7---------------|-----------------|

Verse:
G |-----------------|-----------------|-----------------|-----------------|
D |-----------------|-----------------|-----------------|-----------------|
A |-5-----5-5-----5-|-5-----5-5-----5-|-3-----3-3-----3-|-3-----3-3-----3-|
D |-----------------|-----------------|-----------------|-----------------|

G |-----------------|-----------------|-----------------|-----------------|
D |-----------------|-----------------|-----------------|-----------------|
A |-----------------|-----------------|-1-----1-1-----1-|-----------------|
D |-5-----5-5-----5-|-5-----5-5-----5-|-----------------|-3-----3-3-----3-|

G |-----------------|-----------------|-----------------|-----------------|
D |-----------------|-----------------|-----------------|-----------------|
A |-5-----5-5-----5-|-5-----5-5-----5-|-0-----0-0-----0-|-4-----4-4-----4-|
D |-----------------|-----------------|-----------------|-----------------|

G |-----------------|-----------------|-----------------|-----------------|
D |-----------------|-----------------|-----------------|-----------------|
A |-1-----1-1-----1-|-1-----1-1-----1-|-----------------|-3-----3-3-----3-|
D |-----------------|-----------------|-3-----3-3-----3-|-----------------|

G |-----------------|-----------------|
D |-----------------|-----------------|
A |-4-----4-4-----4-|-4-----4-4-----4-|
D |-----------------|-----------------|

Chorus:
G |-----------------|-----------------|-------2*--------|-----------------|
D |-------0*--------|-----------------|-------3*--------|-3-3-2h3---2-3-2-|
A |---0*------------|-5-5-3h5---3-5-3-|---3*------------|-----------------|
D |-0*------------0-|-----------------|-3*--------------|-----------------|

G |-----------------|-----------------|-----------------|-----------------|
D |-----------------|-----------------|-----7-8*--------|-----------------|
A |---0-------------|-----------------|---5-------------|-0-1-3-5*--------|
D |-5---5*----------|-5-5-7-8---7-----|-7---------------|-----------------|

Solo:
G |------------------|------------------|------------------|------------------|
D |------------------|------------------|------------------|------------------|
A |-5-5-5-55-55-5-55-|-5-5-5-55-55-5-55-|-3-3-3-33-33-3-33-|-3-3-3-33-33-3-33-|
D |------------------|------------------|------------------|------------------|

G |------------------|------------------|------------------|------------------|
D |------------------|------------------|------------------|------------------|
A |------------------|------------------|-1-1-1-11-11-1-11-|------------------|
D |-5-5-5-55-55-5-55-|-5-5-5-55-55-5-55-|------------------|-3-3-3-33-33-3-33-|

G |------------------|------------------|------------------|------------------|
D |------------------|------------------|------------------|------------------|
A |-5-5-5-55-55-5-55-|-5-5-5-55-55-5-55-|-0-0-0-00-00-0-00-|-4-4-4-44-44-4-44-|
D |------------------|------------------|------------------|------------------|

G |------------------|------------------|------------------|------------------|
D |------------------|------------------|------------------|------------------|
A |-1-1-1-11-11-1-11-|-1-1-1-11-11-1-11-|------------------|-3-3-3-33-33-3-33-|
D |------------------|------------------|-3-3-3-33-33-3-33-|------------------|

G |------------------|------------------|------------------|
D |------------------|------------------|------------------|
A |-4-4-4-44-44-4-44-|-4----------------|------------------|
D |------------------|------------------|------------------|

Chorus:
G |-----------------|-----------------|-------2*--------|-----------------|
D |-------0*--------|-----------------|-------3*--------|-3-3-2h3---2-3-2-|
A |---0*------------|-5-5-3h5---3-5-3-|---3*------------|-----------------|
D |-0*------------0-|-----------------|-3*--------------|-----------------|

G |-----------------|-----------------|-----------------|-----------------|
D |-----------------|-----------------|-----7-8*--------|-----------------|
A |---0-------------|-----------------|---5-------------|-0-1-3-5*--------|
D |-5---5*----------|-5-5-7-8---7-----|-7---------------|-----------------|

G |-----------------|-----------------|-------2*--------|-----------------|
D |-------0*--------|-----------------|-------3*--------|-3-3-2h3---2-3-2-|
A |---0*------------|-5-5-3h5---3-5-3-|---3*------------|-----------------|
D |-0*------------0-|-----------------|-3*--------------|-----------------|

G |-----------------|-----------------|-----------------|-----------------|
D |-----------------|-----------------|-----7-8*--------|-----------------|
A |---0-------------|-----------------|---5-------------|-0-1-3-5---------|
D |-5---5*----------|-5-5-7-8---7-----|-7---------------|-----------------|

Email: pefbass@gmail.com

Please Rate!

            
            
Suggest correction
Creating personal tab
Creating personal tab
You can edit any tab online and save it as your Personal.

You can edit, replace or remove any tab part or add personal notes – all changes will be seen only by you.

Personal tabs can be accessed anytime from any device, even offline.
Learn more »
Give kudos to tab author, rate the tab!
1 2 3 4 5
comments
print report bad tab
1 comment total.
0 reply
Sam_Reeve 10 Jun 01, 2016 07:42 AM

Great song, great band! Thanks for tabbing this out!

guest
You may want to rate the tab now too:
select rating
Wanna post a correction for this tab? Suggest correction