Oops, an error
Loading. Please wait.

Swollen And Halo bass

version 2
version 2

Whole song

Interactive

392 views 1 this week
no commentswrite comment
1 2 3 4 5
3 more votes to show rating
add to favorites
×
Save as Personal and add changes to this tab that will be seen only by you. Learn more ›
×
You can save this tab as Personal to edit and correct it or add notes. All changes will be seen only by you. Learn more »
launch autoscroll
font size
0
reset
guitar tuner
edit
Autoscroll
slow
fast
+/-
esc
set tempo
stop
Author
Difficulty
Artist:  Baroness
Song:    Swollen and Halo
Album:   Blue Record
Tab By:  J. Wagner
Note:    Still learning the ways of tabbing, if you see any mistakes please e-mail me,
         I will give full credit to any contributors.
E-Mail:  ThirteenStrings@gmail.com
Site:    www.ThirteenStrings.com


G|---------------|
D|---------------|
A|---------------| Rest 4 bars and 2 beats
E|---------------|
B|---------------|


G|-------|------------------------------------------------------------------|
D|-------|------------------------------------------------------------------|
A|-------|----------------------------------6----6--6----6--3----3--3----3--|
E|-6--3--|--3----3--3----3--3----3--3----3----------------------------------|
B|-------|------------------------------------------------------------------|


G|---------------------------------------------------------------------|
D|---------------------------------------------------------------------|
A|----------------------------------6--6--6--6----3--3--3--3--3--3--3--|
E|--3----3--3----3--3----3--3----3-------------------------------------|
B|---------------------------------------------------------------------|


G|---------------------------------------------------------------------|
D|---------------------------------------------------------------------|
A|----------------------------------6----6--6----6--3----3--3----3-----| x4
E|--3----3--3----3--3----3--3----3-------------------------------------|
B|---------------------------------------------------------------------|


G|-----------------------------------------------------------|
D|-----------------------------------------------------------|
A|------------------------------6-6--6-6-6--6-3-3--3-3-3--3--| x2
E|--3-3--3-3-3--3-3-3--3-3-3--3------------------------------|
B|-----------------------------------------------------------|


G|-----------------------------------------------------------------|
D|-----------------------------------------------------------------|
A|---------------------------------6-6-6-6-6-6-6-6-3-3-3-3-3-3-3-3-|
E|-3-3-3-3-3-3-3-3-3-3-3-3-3-3-3-3---------------------------------|
B|-----------------------------------------------------------------|


G|-----------------------------------------------------------------|
D|-------------------------------------------------4-4-4-4-4-4-4-4-|
A|---------------------------------6-6-6-6-6-6-6-6-----------------|
E|-3-3-3-3-3-3-3-3-3-3-3-3-3-3-3-3---------------------------------|
B|-----------------------------------------------------------------|


G|-----------------------------------------------------------------|
D|-----------------------------------------------------------------|
A|---------------------------------6-6-6-6-6-6-6-6-3-3-3-3-3-3-3-3-| x2
E|-3-3-3-3-3-3-3-3-3-3-3-3-3-3-3-3---------------------------------|
B|-----------------------------------------------------------------|


G|-----------------------------------------------------------------|
D|-----------------------------------------------------------------|
A|---------------------------------6-6-6-6-6-6-6-6-8-8-8-8-8-8-8-8-|
E|-3-3-3-3-3-3-3-3-3-3-3-3-3-3-3-3---------------------------------|
B|-----------------------------------------------------------------|


G|---------------------------------------------------------------------|
D|---------------------------------------------------------------------|
A|---------------------------------6-6-6-6-6-6-6-6---------------------|
E|-3-3-3-3-5-5-5-5-6-6-6-6-6-6-6-6-------------------------------------|
B|-------------------------------------------------1----1----1----1----|


G|-------------------------------------------------------------|
D|-------------------------------------------------------------|
A|----------------------------------6----6--6----6--3----3--3--|
E|--3----3--3----3--3----3--3----3-----------------------------|
B|-------------------------------------------------------------|


G|--------------------------------------------------------------------------------|
D|-5-5-5-5-3-3-3-3----------------------------------------------------------------|
A|-----------------6-6-6-6-5-5-5-5-------------------------3-3-3-3--5--3----------|
E|---------------------------------3-3-3-3-5-5-5-5-6-6-6-6----------------6---5---|
B|--------------------------------------------------------------------------------|


G|--------------------------------------------------------------------------|
D|--------------------------------------------------------------------------|
A|---------------------------3---3-----5------3---3-------------------------|
E|---3-----5---5------6-----------------------------------6---6-----5---5---|
B|--------------------------------------------------------------------------|


G|--------------------------------------------------------------------------|
D|--------------------------------------------------------------------------|
A|--------------------------------------6--6-----5--5-----3--3--------------|
E|---3-----1--1-----------------------------------------------------6---6---|
B|-------------------1--1-----4--4------------------------------------------|


G|-----------------------------------------------------------------|
D|-5-5-5-5-3-3-3-3-------------------------------------------------|
A|-----------------6-6-6-6-5-5-5-5---------------------------------|
E|---------------------------------------------------------1-1-1-1-|
B|---------------------------------1-1-1-1-3-3-3-3-4-4-4-4---------|


G|-------------------------------------------------------------------|
D|-----------------------------------------------------------3---3---|
A|-------------------------3-3-3-3---3---3---5---5---6---6-----------|
E|-3-3-3-3-5-5-5-5-6-6-6-6-------------------------------------------|
B|-------------------------------------------------------------------|


G|----------------------------------------------------------|
D|----------------------------------------------------------|
A|----------------------------------------------------------|
E|--3----3--3----3--3----3--3----3----3--3----3--3----3--3--|
B|----------------------------------------------------------|


G|-------------------------------------------------------------| 
D|-------------------------------------------------------------|
A|----------------------------------6----6--6----6--8----8--8--| x3
E|--3----3--3----3--3----3--3----3-----------------------------|
B|-------------------------------------------------------------|


G|-------------------------------------------------------------------|
D|-------------------------------------------------------------------|
A|----------------------------------6-6-6-6-6-6-6-6-3-3-3-3-3-3-3-3--|
E|--3----3--3----3--3----3--3----3-----------------------------------|
B|-------------------------------------------------------------------|


G|---------------------------------------------------------------------|
D|---------------------------------------------------------------------|
A|---------------------------------6-6-6-6-6-6-6-6---------------------|
E|-3-3-3-3-5-5-5-5-6-6-6-6-6-6-6-6-------------------------------------|
B|-------------------------------------------------1----1----1----1----|


G|-------------------------------------------------------------|
D|-------------------------------------------------------------|
A|----------------------------------6----6--6----6--3----3--3--|
E|--3----3--3----3--3----3--3----3-----------------------------|
B|-------------------------------------------------------------|


G|--------------------------------------------------------------------------------|
D|-5-5-5-5-3-3-3-3----------------------------------------------------------------|
A|-----------------6-6-6-6-5-5-5-5-------------------------3-3-3-3--5---3---------|
E|---------------------------------3-3-3-3-5-5-5-5-6-6-6-6------------------6---5-|
B|--------------------------------------------------------------------------------|


G|--------------------------------------------------------------------------|
D|--------------------------------------------------------------------------|
A|---------------------------3---3-----5------3---3-------------------------|
E|---3-----5---5------6----------------------------------6---6------5---5---|
B|--------------------------------------------------------------------------|


G|--------------------------------------------------------------------------|
D|--------------------------------------------------------------------------|
A|-----------------------------------6---6-----5---5-----3---3--------------|
E|---3-----1---1----------------------------------------------------6---6---|
B|------------------1---1----4---4------------------------------------------|


G|-----------------------------------------------------------------|
D|-5-5-5-5-3-3-3-3-------------------------------------------------|
A|-----------------6-6-6-6-5-5-5-5---------------------------------|
E|---------------------------------------------------------1-1-1-1-|
B|---------------------------------1-1-1-1-3-3-3-3-4-4-4-4---------|


G|-----------------------------------------------------------------
D|---------------------------------------------------------3---3---|
A|-------------------------3-3-3-3-3---3---5---5---6---6-----------|
E|-3-3-3-3-5-5-5-5-6-6-6-6-----------------------------------------|
B|-----------------------------------------------------------------|


G|------------------------------|
D|------------------------------|
A|------------------------------|
E|--3----3--3----3--3----3--3---|
B|------------------------------|


(3:44)
G|----------------------------------------------------------------------|
D|----------------------------------------------------------*--*-----*--|     Hard for me to 
A|------------------2----2--3----3--6----6--6----6--3----3--3--2--*--2--| x3  hear the last
E|--3----3--3----3------------------------------------------------3-----|     four notes
B|----------------------------------------------------------------------|


G|--------------------------------------------------------------------------|
D|--------------------------------------------------------------------------|
A|------------------2----2--3----3--6----6--6----6--8--8--8--8--8--8--8-----|
E|--3----3--3----3----------------------------------------------------------|
B|--------------------------------------------------------------------------|


(4:10)
G|-----------------------------------|
D|-----------3-----------6-------8---|
A|-------2-----------5-------6-------| x8
E|---3-----------3-------------------|
B|-----------------------------------|


G|-------------------------------------------------|
D|-------------3-3-3-------------6-6-6-------8-8-8-|
A|-------2-2-2-------------5-5-5-------6-6-6-------| x4
E|-3-3-3-------------3-3-3-------------------------|
B|-------------------------------------------------|


G|-----------------------------------|
D|-----------3-----------6-------8\--|     Same notes, listen for rythm,
A|-------2-----------5-------6-------| x8  slide the last note down
E|---3-----------3-------------------|
B|-----------------------------------|


(5:01)
G|-----------------------------------------------------------|
D|-5-5-5-3-3-3-----------------------------------------------|
A|-------------6-6-6-5-5-5-6-6-6-5-5-5-3-3-3-----------------|
E|-------------------------------------------6-6-6-3---------|
B|-----------------------------------------------------------|


(5:05)
G|---------------------------------------------------|
D|---------------------------------------------------|
A|---------------------------------------------------| x2
E|-----3----------1-----------3----------1-----------|
B|----------------------3----------------------3-----|


G|----------------*-**-*-*-*-*-*-*-*-*-*-*-*---|
D|----------------8-10-8-7-8-7-5-5-7-5-3-5-3-*-|    I think this is the fill,
A|-------------------------------------------6-| x2 Probably a little different
E|-3----6-8-6-5-3------------------------------|
B|---------------------------------------------|


Guitar Solo (5:29)
G|--------------------------------------------|
D|--------------------------------------------|
A|-------------------------6---6------3---3---| x2
E|---3---3------3---3-------------------------|
B|--------------------------------------------|


G|--------------------------------------------|
D|--------------------------------------------|
A|--------------------------------------------|
E|-------------------------6---6------5---5---|
B|---4---4------3---3-------------------------|


G|--------------------------------------------|
D|--------------------------------------------|
A|-------------------------6---6------3---3---|
E|---3---3------3---3-------------------------|
B|--------------------------------------------|


G|-----------------------------|
D|------8-10-8-7---------------|
A|---------------10--6----3----| x3
E|-3---------------------------|
B|-----------------------------|


G|-----------------------------------------------|
D|------8-10-8-7---------------------------------|
A|---------------10--2----3--2-------------------|
E|-3----------------------------3----------------|
B|-----------------------------------------------|
Suggest correction
Creating personal tab
Creating personal tab
You can edit any tab online and save it as your Personal.

You can edit, replace or remove any tab part or add personal notes – all changes will be seen only by you.

Personal tabs can be accessed anytime from any device, even offline.
Learn more »
Give kudos to tab author, rate the tab!
1 2 3 4 5
comments
print report bad tab
guest
You may want to rate the tab now too:
select rating
Wanna post a correction for this tab? Suggest correction