Oops, an error
Loading. Please wait.

Take My Bones Away bass

version 1
version 1

Whole song

4,844 views 18 this week
1 commentread comment
1 2 3 4 5
1 last vote to show rating
add to favorites
×
Save as Personal and add changes to this tab that will be seen only by you. Learn more ›
×
You can save this tab as Personal to edit and correct it or add notes. All changes will be seen only by you. Learn more »
launch autoscroll
font size
0
reset
guitar tuner
edit
Autoscroll
slow
fast
+/-
esc
set tempo
stop
Artist:      Baroness
Song:        Take My Bones Away
Album:       Yellow and Green (Disk 1)
Tab Author:  J. Wagner
Note:        If you have any suggestions or changes please let me know,
             will give full credit for any corrections.
E-Mail:      ThirteenStrings@Gmail.com
Site:        www.ThirteenStrings.com

G|--------|
D|--------|
A|--------|
E|--------|
B|-0------|

Intro x2
G|---------------------------------------------------------|
D|---------------------------------------------------------|
A|---------------------------------------------------------|
E|---------------------------------------------------------|
B|-0-0-0-0-0-0-0-0-0-0-0-0-0-0-0-0-0-0-0-0-0-0-0-0-0-0-0-0-|

G|---------------------------------------------------------------|
D|---------------------------------------------------------------|
A|---------------------------------------------------------------|
E|---------------------------------------------------------------|
B|-3-3-3-3-3-3-3-3-3-3-3-3--3-5\-0-0-0-0-0-0-0-0-0-0-0-0-0-0-0-0-|

Verse
G|-----------------------------------------------------------------|
D|-----------------------------------------------------------------|
A|-2-2-2-2-2-2-2-2-2-2-2-2-2-2-2-2-0-0-0-0-0-0-0-0-----------------| x2
E|-------------------------------------------------0-0-0-0-0-0-0-0-|
B|-----------------------------------------------------------------|

G|-----------------------------------------------------------------|
D|-----------------------------------------------------------------|
A|-2-2-2-2-2-2-2-2-2-2-2-2-2-2-2-2-0-0-0-0-0-0-0-0-----------------| x2
E|-------------------------------------------------2-2-2-2-0-0-0-0-|
B|-----------------------------------------------------------------|

Pre-Chorus x2
G|--------------------------------------------------|
D|------------------------0--------------------0----|
A|-2-2--0-2-2--0-2-2--0-2---2-0-0--0-0-------2----0-|
E|--------------------------------------2-2---------|
B|--------------------------------------------------|

Chorus x2
G|---------------------------------------------------------|
D|---------------------------------------------------------|
A|---------------------------------------------------------|
E|-------------------------0-2-2-2-2-2-2-2-5--5-5-4--4-4-4-|
B|-3-3-3-3-3-3-3-3-3-3-3-3---------------------------------|

REST 2 MEASURES

Verse
G|-----------------------------------------------------------------|
D|-----------------------------------------------------------------|
A|-2-2-2-2-2-2-2-2-2-2-2-2-2-2-2-2-0-0-0-0-0-0-0-0-----------------| x2
E|-------------------------------------------------0-0-0-0-0-0-0-0-|
B|-----------------------------------------------------------------|

G|-----------------------------------------------------------------|
D|-----------------------------------------------------------------|
A|-2-2-2-2-2-2-2-2-2-2-2-2-2-2-2-2-0-0-0-0-0-0-0-0-----------------| x2
E|-------------------------------------------------2-2-2-2-0-0-0-0-|
B|-----------------------------------------------------------------|

Pre-Chorus x2
G|--------------------------------------------------|
D|------------------------0--------------------0----|
A|-2-2--0-2-2--0-2-2--0-2---2-0-0--0-0-------2----0-|
E|--------------------------------------2-2---------|
B|--------------------------------------------------|

Chorus x2
G|---------------------------------------------------------|
D|---------------------------------------------------------|
A|---------------------------------------------------------|
E|-------------------------0-2-2-2-2-2-2-2-5--5-5-4--4-4-4-|
B|-3-3-3-3-3-3-3-3-3-3-3-3---------------------------------|

Guitar Solo 1
G|--------------------------------------------------------------|
D|--------------------------------------------------------------|
A|-2-2-2-2-2-2-2-2-2-2-2-2-2-2-2-0--0-0-0---0-0-----------------| x2
E|----------------------------------------------2---2-2-0-0-0-0-|
B|--------------------------------------------------------------|

G|------------------------------------------------------------|
D|----------------------------------------------------0-------|
A|-2--2-3--3-5--5-7--5-0--0-0-0-0-0-0-0-0-0-0-0-0-0-2---------|
E|------------------------------------------------------------|
B|------------------------------------------------------------|

G|----------------------------------------------------------------|
D|----------------------------------------------------------------|
A|-2-2-2-2-2-2-2-2-2-2-2-2-2-2-2-0-0-0-0-0-0-0-0------------------|
E|-----------------------------------------------2-2-2-2-0-0-0-0--|
B|----------------------------------------------------------------|

REST 4 MEASURES

Bridge        Gets more chaotic as you go
G|----------------------------------------------------------------------------|
D|----------------------------------------------------------------------------| 
A|-0-2-2-2-2-2-2-2-2--0-2-2-2-2-2-2-2-2--2-0-0-0-0-0-0-0-0--0-----------------| x6
E|------------------------------------------------------------4-4-4-4-4-4-4-4-|
B|----------------------------------------------------------------------------|

REST 16 MEASURES

Verse x2
G|-----------------------------------------------------------------|
D|-----------------------------------------------------------------|
A|-2-2-2-2-2-2-2-2-2-2-2-2-2-2-2-2-0-0-0-0-0-0-0-0-----------------|
E|-------------------------------------------------2-2-2-2-0-0-0-0-|
B|-----------------------------------------------------------------|

Guitar Solo 2
G|-----------------------------------------------------------------|
D|-----------------------------------------------------------------|
A|-----------------------------------------------------------------| x4
E|-------------------------------0-2-2-2-2-2-2-2-2-5-5-5-5-4-4-4-4-|
B|-3-3-3-3-3-3-3-3-3-3-3-3-3-3-3-----------------------------------|

End
G|-----|
D|-----|
A|-----|
E|-----|
B|--3--|
Suggest correction
Creating personal tab
Creating personal tab
You can edit any tab online and save it as your Personal.

You can edit, replace or remove any tab part or add personal notes – all changes will be seen only by you.

Personal tabs can be accessed anytime from any device, even offline.
Learn more »
Give kudos to tab author, rate the tab!
1 2 3 4 5
comments
print report bad tab
1 comment total.
0 reply
Spanner93 60 Jul 09, 2014 02:04 AM

Lack of accuracy.

guest
You may want to rate the tab now too:
select rating
Wanna post a correction for this tab? Suggest correction