Oops, an error
Loading. Please wait.

Take My Bones Away bass

version 2
version 2

Whole song

714 views 12 this week
no commentswrite comment
1 2 3 4 5
3 more votes to show rating
add to favorites
×
Save as Personal and add changes to this tab that will be seen only by you. Learn more ›
×
You can save this tab as Personal to edit and correct it or add notes. All changes will be seen only by you. Learn more »
launch autoscroll
font size
0
reset
guitar tuner
edit
Autoscroll
slow
fast
+/-
esc
set tempo
stop
Author
Difficulty
Gigantic props to Thirteenstrings, whose Tab I used as a basis for this more correct version!

His Tab was solid for the most part, but it's easier to play in this position, and his Pre-Chorus section 
was way off, as was the middle 3rd of the 1st solo.


G|--------|
D|--------|
A|--------|
E|--------|
B|-0------|

Intro x2
G|---------------------------------------------------------|
D|---------------------------------------------------------|
A|---------------------------------------------------------|
E|---------------------------------------------------------|
B|-0-0-0-0-0-0-0-0-0-0-0-0-0-0-0-0-0-0-0-0-0-0-0-0-0-0-0-0-|

G|---------------------------------------------------------------|
D|---------------------------------------------------------------|
A|---------------------------------------------------------------|
E|---------------------------------------------------------------|
B|-3-3-3-3-3-3-3-3-3-3-3-3--3\5-0-0-0-0-0-0-0-0-0-0-0-0-0-0-0-0-|

Verse
G|-----------------------------------------------------------------|
D|-----------------------------------------------------------------|
A|-----------------------------------------------------------------| x2
E|-7-7-7-7-7-7-7-7-7-7-7-7-7-7-7-7-5-5-5-5-5-5-5-5-----------------|
B|-------------------------------------------------5-5-5-5-5-5-5-5-|

G|-----------------------------------------------------------------|
D|-----------------------------------------------------------------|
A|-----------------------------------------------------------------| x2
E|-7-7-7-7-7-7-7-7-7-7-7-7-7-7-7-7-5-5-5-5-5-5-5-5-----------------|
B|-------------------------------------------------7-7-7---5-5-5---|


Pre-Chorus x2
G|--------------------------------------------------|
D|--------------------------------------------------|
A|------------------------5------------------5-7----|
E|-7-7--5h7-7--5h7-7--5h7---5-5-4/5-5---------------|
B|--------------------------------------7-7---------|

Chorus x2
G|---------------------------------------------------------|
D|---------------------------------------------------------|
A|---------------------------------------------------------|
E|-------------------------0-2-2-2-2-2-2-2-5--5-5-4--4-4-4-|
B|-3-3-3-3-3-3-3-3-3-3-3-3---------------------------------|

REST 2 MEASURES

Verse
G|-----------------------------------------------------------------|
D|-----------------------------------------------------------------|
A|-----------------------------------------------------------------| x2
E|-7-7-7-7-7-7-7-7-7-7-7-7-7-7-7-7-5-5-5-5-5-5-5-5-----------------|
B|-------------------------------------------------5-5-5-5-5-5-5-5-|

G|-----------------------------------------------------------------|
D|-----------------------------------------------------------------|
A|-----------------------------------------------------------------| x2
E|-7-7-7-7-7-7-7-7-7-7-7-7-7-7-7-7-5-5-5-5-5-5-5-5-----------------|
B|-------------------------------------------------7-7-7---5-5-5---|


Pre-Chorus x2
G|--------------------------------------------------|
D|--------------------------------------------------|
A|------------------------5------------------5-7----|
E|-7-7--5h7-7--5h7-7--5h7---5-5-4/5-5---------------|
B|--------------------------------------7-7---------|

Chorus x2
G|---------------------------------------------------------|
D|---------------------------------------------------------|
A|---------------------------------------------------------|
E|-------------------------0-2-2-2-2-2-2-2-5--5-5-4--4-4-4-|
B|-3-3-3-3-3-3-3-3-3-3-3-3---------------------------------|

Guitar Solo 1
G|-----------------------------------------------------------------|
D|-----------------------------------------------------------------|
A|-----------------------------------------------------------------| x2
E|-7-7-7-7-7-7-7-7-7-7-7-7-7-7-7-7-5-5-5-5-5-5-5-5-----------------|
B|-------------------------------------------------7-7-7---5-5-5---|

G|------------------------------------------------------------|
D|------------------------------------------------------------|
A|------------------------------------------------------------|
E|-7-0-7/8-0-8/10-0-10/12-0-0-5-5-5-5-5-5-5-5-5-5-5-5-5-0-----|
B|------------------------------------------------------------|

G|--------------------------------------------------|
D|--------------------------------------------------|
A|------------------------5------------------5-7----|
E|-7-7--5h7-7--5h7-7--5h7---5-5-4/5-5---------------|
B|--------------------------------------7-7---------|

REST 4 MEASURES

Bridge        
G|----------------------------------------------------------------------------|
D|----------------------------------------------------------------------------| 
A|----------------------------------------------------------------------------| x6
E|-5h7-7-7-7-7-7-7-777-5h7-7-7-7-7-7-777-7p5-5-5-5-5-5-5-555-5/4-4-4-4-4-4-444|
B|----------------------------------------------------------------------------|

REST 16 MEASURES

Verse x2
G|-----------------------------------------------------------------|
D|-----------------------------------------------------------------|
A|-----------------------------------------------------------------| x2
E|-7-7-7-7-7-7-7-7-7-7-7-7-7-7-7-7-5-5-5-5-5-5-5-5-----------------|
B|-------------------------------------------------7-7-7---5-5-5---|

Guitar Solo 2
G|-----------------------------------------------------------------|
D|-----------------------------------------------------------------|
A|-----------------------------------------------------------------| x4
E|-------------------------------0-2-2-2-2-2-2-2-2-5-5-5-5-4-4-4-4-|
B|-3-3-3-3-3-3-3-3-3-3-3-3-3-3-3-----------------------------------|

End
G|-----|
D|-----|
A|-----|
E|-----|
B|--3--|
Suggest correction
Creating personal tab
Creating personal tab
You can edit any tab online and save it as your Personal.

You can edit, replace or remove any tab part or add personal notes – all changes will be seen only by you.

Personal tabs can be accessed anytime from any device, even offline.
Learn more »
Give kudos to tab author, rate the tab!
1 2 3 4 5
comments
print report bad tab
guest
You may want to rate the tab now too:
select rating
Wanna post a correction for this tab? Suggest correction