Oops, an error
Loading. Please wait.

The Gnashing Bass Tab

version 1
version 1

Whole song

Interactive

408 views 1 this week
no commentswrite comment
1 2 3 4 5
please rate
add to favorites
launch autoscroll
font size
0
reset
guitar tuner
Tab Pro tools
  • play this tab
  • loop segment
  • change instrument
  • show fretboard
  • metronome
×
Best way to learn
"The Gnashing"
Autoscroll
slow
fast
+/-
esc
set tempo
stop
Contributor
Artist:      Baroness
Song:        The Gnashing
Album:       Blue Record
Tab Author:  J. Wagner
Note:        Enjoy!  Please, if you have any corrections or suggestion e-mail me,
             I give full credit for those willing to better my tabs.
E-Mail:      ThirteenStrings@Gmail.com
Site:        www.ThirteenStrings.com



Intro - No Bass, maybe a couple soft F's


(0:26) x2
G|----------------------------------------------------|
D|----------------------------------------------------|
A|--3----3--3----3----3--3----3----3--3----3----3--3--|
E|----------------------------------------------------|
B|----------------------------------------------------|

(0:41)
G|-------------------------------------------------------------|
D|-------------------------------------------------------------|
A|--3----3--3----3--3----3--3----3--3----3--3----3--3----3--3--|
E|-------------------------------------------------------------|
B|-------------------------------------------------------------|

G|----------------------------------------------------------------|
D|----------------------------------------------------------------|
A|--3--3----3--3----3--3----3--3----3--3----3--3----3--3----3--3--|
E|----------------------------------------------------------------|
B|----------------------------------------------------------------|

(0:57)
G|--------------------------------------------------------------------------------|
D|--.-----------.-----------.-----------.-----------.-----------.-----------.-----|
A|--3--3--3--3--3--3--3--3--3--3--3--3--3--3--3--3--3--3--3--3--3--3--3--3--3-----|
E|--------------------------------------------------------------------------------|
B|--------------------------------------------------------------------------------|

(1:04)
G|--------------------------------------------------------------------------------|
D|--------------------------------------------------------------------------------|
A|--------------------------------------------------------------------------------|
E|-----------------------------1-----------------------1--1--1--1--1--------------|
B|--1----1--1----1----1--3--4-----4--3--1--3--1--3--1-----------------4--1--------|

G|------------------------------------------------------------------------------|
D|------------------------------------------------------------------------------|
A|------------------------------------------------------------------------------|
E|--------------------------------------1-----------------1--1--1--1--1---------|
B|--1--3--4--1----1--1----1----1--3--4-----4--3--1--3--1-----------------4------|

(1:26)
G|------------------------------------|
D|------------------------------------|
A|------------------------------------| x3
E|-------------------1----------------|
B|-4-3-1-1--4-3-1-1-----1-1-1-1-1-1-1-|

G|----------------------|-----------------------------|
D|----------------------|-----------------------------|
A|----------------------|-3---2---0-------------------|
E|-------------------1--|-------------3---------1--3--|
B|-4-3-1-1--4-3-1-1-----|--------------------4--------|

G|------------------------------------|
D|------------------------------------|
A|------------------------------------| x3
E|-------------------1----------------|
B|-4-3-1-1--4-3-1-1-----1-1-1-1-1-1-1-|

G|----------------------|--------------------------------|
D|----------------------|--------------------------------|
A|----------------------|-3---2---0----------------------|
E|-------------------1--|-------------3---------1--3-----|
B|-4-3-1-1--4-3-1-1-----|--------------------4--------1--|

(1:57)
G|------------------------------------|
D|------------------------------------|
A|------------------------------------| x3
E|-------------------1-3-1------------|
B|-4-3-1-1--6-4-3-1---------1-1-1-1-1-|

G|-----------------------|-----------------------------|
D|-----------------------|-----------------------------|
A|-----------------------|-3---2---0-------------------|
E|-------------------1-3-|-------------3---------1--3--|
B|-4-3-1-1--6-4-3-1------|--------------------4--------|

G|------------------------------------|
D|------------------------------------|
A|------------------------------------| x3
E|-------------------1-3-1------------|
B|-4-3-1-1--6-4-3-1---------1-1-1-1-1-|

G|-----------------------|--------------------------------|
D|-----------------------|--------------------------------|
A|-----------------------|-3---2---0----------------------|
E|-------------------1-3-|-------------3---------1--3-----|
B|-4-3-1-1--6-4-3-1------|--------------------4--------1--|

(2:51) x2
G|-------------------|
D|-------------------|
A|-------------------|
E|---1---0-------3---|
B|-----------3-------|

G|---------------------------------|---------------------------------|
D|---------------------------------|---------------------------------|
A|---------------------------------|---------------------------------|
E|---------------------------------|-5-5-5-5-5-5-5-5-5-5-5-5-5-5-5-5-|
B|-1-1-1-1-1-1-1-1-1-1-1-1-1-1-1-1-|---------------------------------|

G|---------------------------------|---------------------------------|
D|---------------------------------|---------------------------------|
A|---------------------------------|---------------------------------|
E|-3-3-3-3-3-3-3-3-3-3-3-3-3-3-3-3-|-1-1-1-1-1-1-1-1-1-1-1-1-1-1-1-1-|
B|---------------------------------|---------------------------------|

(3:16)
G|-------------------|
D|-------------------|
A|-------------------|
E|---1---0-------3---|
B|-----------3-------|

G|---------------------------------|---------------------------------|
D|---------------------------------|---------------------------------|
A|---------------------------------|---------------------------------|
E|---------------------------------|-1-1-1-1-1-1-1-1-1-1-1-1-1-1-1-1-|
B|-1-1-1-1-1-1-1-1-1-1-1-1-1-1-1-1-|---------------------------------|

G|---------------------------------|---------------------------------|
D|---------------------------------|---------------------------------|
A|---------------------------------|---------------------------------|
E|-5-5-5-5-5-5-5-5-5-5-5-5-5-5-5-5-|-3-3-3-3-3-3-3-3-3-3-3-3-3-3-3-3-|
B|---------------------------------|---------------------------------|

G|-------------------|-
D|-------------------|
A|-------------------|
E|---1---0-------3---|
B|-----------3-------|

(3:31)
G|---------------------------------------------------------------------------|
D|---------------------------------------------------------------------------|
A|---------------------------------------------------------------------------|
E|-.------------------------.------------------------.-----------------------|
B|-4-3-1-1--4-3-1-1--4-3-1--4-3-1-1--4-3-1-1--4-3-1--4-3-1-1--4-3-1-1--4-3-1-|

(3:36)
G|---------------------------------------|
D|---------------------------------------|
A|-----------------------------------3---|
E|---1---0-------0---1---0---1---3-------|
B|-----------3---------------------------|

(3:42) x4          |----Ritard on fourth time
G|-----------------|-------------------------------------|
D|-----------------|-------------------------------------|
A|-----------------|-------------------------------------|
E|--1--3-----------|--1--3--1--3--1--3--1--3-------------|
B|--------1--------|--------------------------1----------|
comments
We did not receive enough feedback on this tab! Please rate:
print report bad tab
1 2 3 4 5
I want to post or [tab]
guest
You may want to rate the tab now too:
select rating
Please do not post tabs as comments. Select "correction" instead!