Oops, an error
Loading. Please wait.

Do The Very Best You Can bass

13 views 1 this week
no commentswrite comment
1 2 3 4 5
2 more votes to show rating
add to favorites
×
Save as Personal and add changes to this tab that will be seen only by you. Learn more ›
×
You can save this tab as Personal to edit and correct it or add notes. All changes will be seen only by you. Learn more »
launch autoscroll
font size
0
reset
guitar tuner
edit
Autoscroll
slow
fast
+/-
esc
set tempo
stop
Artist: Barret Strong
Song: Do The Very Best You Can
Tuning - Standard
tabbed by electricbunny

[Chorus]                                                            
G|--------------------------------|--------------------------------|
D|--------------------------------|--------------------------------|
A|--------------------------------|--------------------------0-----|
E|1-----------------------1-------|1-------------------2-----------|
 
G|--------------------------------|--------------------------------|
D|--------------------------------|--------------------------------|
A|1-------------------1-----1-----|3-------------------3-----0-----|
E|--------------------------------|--------------------------------|
 
G|--------------------------------|--------------------------------|
D|--------------------------------|--------------------------------|
A|--------------------------------|0-------------------0-----------|
E|1-------------------------------|--------------------------1-----|
 
G|--------------------------------|--------------------------------|
D|--------------------------------|--------------------------------|
A|1---------------1-----1-----1---|3-------------------3-----3-----|
E|--------------------------------|--------------------------------|
 
G|--------------------------------|--------------------------------|
D|--------------------3-----------|0-------------------0-----------|
A|--------------------------------|--------------------------3-----|
E|1-------------------------------|--------------------------------|
 
G|--------------------------------|--------------------------------|
D|--------------------------------|--------------------------------|
A|--------------------------0-----|3-------------------3-----3-----|
E|3-------------------3-----------|--------------------------------|
 
G|--------------------------------|--------------------------------|
D|--------------------3-----3-----|0-------------------0-----0-----|
A|--------------------------------|--------------------------------|
E|1-------------------------------|--------------------------------|
 
G|--------------------------------|--------------------------------|
D|--------------------0-----0-----|--------------------------------|
A|--------------------------------|3-------------------------------|
E|1-------------------------------|--------------------------------|
 
[Verse]                                                             
G|--------------------------------|--------------------------------|
D|--------------------------------|--------------------------------|
A|--------------------------------|--------------------------------|
E|1-------------------1-----1-----|4-------------------4-----1-----|
 
G|--------------------------------|--------------------------------|
D|--------------------------------|--------------------------------|
A|1---------------1-----1-----1---|3-------------------3-----3-----|
E|--------------------------------|--------------------------------|
 
G|--------------------------------|--------------------------------|
D|--------------------------------|--------------------------------|
A|--------------------------------|0-------------------0-----0-----|
E|1-------------------1-----1-----|--------------------------------|
 
G|--------------------------------|--------------------------------|
D|--------------------------------|--------------------------------|
A|--------------------------0-----|3-------------------3-----3-----|
E|3-------------------3-----------|--------------------------------|
 
[Chorus]                                                            
G|--------------------------------|--------------------------------|
D|--------------------3-----3-----|0-------------------0-----0-----|
A|--------------------------------|--------------------------------|
E|1-------------------------------|--------------------------------|
 
G|--------------------------------|--------------------------------|
D|--------------------0-----0-----|--------------------3-----3-----|
A|--------------------------------|3-------------------------------|
E|1-------------------------------|--------------------------------|
 
G|--------------------------------|--------------------------------|
D|3-------------------3-----0-----|--------------------------------|
A|--------------------------------|1-------------------1-----1-----|
E|--------------------------------|--------------------------------|
 
G|--------------------------------|--------------------------------|
D|3---------------3---------3-----|1---------1---------------------|
A|--------------------------------|--------------------------0-----|
E|--------------------------------|----------------1---------------|
 
[Interlude]                                                         
G|--------------------------------|--------------------------------|
D|--------------------------------|--------------------------------|
A|1---1---1---1-------1---3-------|3---3---3---3-------3---3-------|
E|--------------------------------|--------------------------------|
 
G|--------------------------------|--------------------------------|
D|3---3---3---3-------3---3-------|3---3---3---3-------3---3-------|
A|--------------------------------|--------------------------------|
E|--------------------------------|--------------------------------|
 
G|--------------------------------|--------------------------------|
D|--------------------------------|--------------------------------|
A|1---1---1---1-------1---1-------|3---3---3---3-------3---3-------|
E|--------------------------------|--------------------------------|
 
G|--------------------------------|--------------------------------|
D|3---3---3---3-------3---3-------|1---1---1---1-------1---3-------|
A|--------------------------------|--------------------------------|
E|--------------------------------|--------------------------------|
 
G|--------------------------------|--------------------------------|
D|--------------------------------|--------------------------------|
A|1---1---1---1-------1---3-------|--------------------------------|
E|--------------------------------|3---3---3---3-------3---3-------|
 
G|--------------------------------|--------------------------------|
D|3---3---3---3-------3---1-------|--------------------------------|
A|--------------------------------|--------------------------------|
E|--------------------------------|1---1---1---1-------1---1-------|
 
G|--------------------------------|--------------------------------|
D|--------------------------------|--------------------------------|
A|--------------------------------|--------------------------------|
E|3---3---3---3-------3---3-------|3---3---3---3-------3---3-------|
 
G|--------------------------------|--------------------------------|
D|--------------------------------|0---0---0---0-------0---0-------|
A|3---3---3---3-------3---0-------|--------------------------------|
E|--------------------------------|--------------------------------|
 
[Chorus]                                                            
G|--------------------------------|--------------------------------|
D|--------------------------------|--------------------------------|
A|--------------------------------|--------------------------0-----|
E|1-----------------------1-------|1-------------------2-----------|
 
G|--------------------------------|--------------------------------|
D|--------------------------------|--------------------------------|
A|1-------------------1-----1-----|3-------------------3-------0---|
E|--------------------------------|--------------------------------|
 
G|--------------------------------|--------------------------------|
D|--------------------------------|--------------------------------|
A|--------------------------------|0---------------------0---------|
E|1-------------------------------|--------------------------1-----|
 
G|--------------------------------|--------------------------------|
D|--------------------------------|--------------------------------|
A|1---------------1-----1-----1---|3---------------------3-----3---|
E|--------------------------------|--------------------------------|
 
G|--------------------------------|--------------------------------|
D|----------------------3-----3---|0-------------------------------|
A|--------------------------------|--------------------------3-----|
E|1-------------------------------|--------------------------------|
 
G|--------------------------------|--------------------------------|
D|--------------------------------|--------------------------------|
A|--------------------------0-----|3-------------------3-----3-----|
E|3-------------------3-----------|--------------------------------|
 
G|--------------------------------|--------------------------------|
D|--------------------3-----3-----|0-------------------0-----0-----|
A|--------------------------------|--------------------------------|
E|1-------------------------------|--------------------------------|
 
G|--------------------------------|--------------------------------|
D|--------------------0-----0-----|--------------------------------|
A|--------------------------------|3-------------------------------|
E|1-------------------------------|--------------------------------|
 
[Verse]                                                             
G|--------------------------------|--------------------------------|
D|--------------------------------|--------------------------------|
A|--------------------------------|--------------------------------|
E|1-------------------1-----1-----|4-------------------4-----1-----|
 
G|--------------------------------|--------------------------------|
D|--------------------------------|--------------------------------|
A|1---------------1-----1-----1---|3-------------------3-----3-----|
E|--------------------------------|--------------------------------|
 
G|--------------------------------|--------------------------------|
D|--------------------------------|--------------------------------|
A|--------------------------------|0-------------------0-----0-----|
E|1-------------------1-----1-----|--------------------------------|
 
G|--------------------------------|--------------------------------|
D|--------------------------------|--------------------------------|
A|--------------------------0-----|3-------------------3-----3-----|
E|3-------------------3-----------|--------------------------------|
 
G|--------------------------------|--------------------------------|
D|--------------------3-----3-----|0-------------------0-----0-----|
A|--------------------------------|--------------------------------|
E|1-------------------------------|--------------------------------|
 
G|--------------------------------|--------------------------------|
D|--------------------0-----0-----|--------------------3-----3-----|
A|--------------------------------|3-------------------------------|
E|1-------------------------------|--------------------------------|
 
G|--------------------------------|--------------------------------|
D|3-------------------3-----0-----|--------------------------------|
A|--------------------------------|1-------------------1-----1-----|
E|--------------------------------|--------------------------------|
 
G|--------------------------------|--------------------------------|
D|3---------------3---------3-----|1---------1---------------------|
A|--------------------------------|--------------------------0-----|
E|--------------------------------|----------------1---------------|
 
[Interlude]                                                         
G|--------------------------------|--------------------------------|
D|--------------------------------|--------------------------------|
A|1---1---1---1-------1---1-------|3---3---3---3-------3---3-------|
E|--------------------------------|--------------------------------|
 
G|--------------------------------|--------------------------------|
D|3---3---3---3-------3---3-------|3---3---3---3-------3---3-------|
A|--------------------------------|--------------------------------|
E|--------------------------------|--------------------------------|
 
G|--------------------------------|--------------------------------|
D|--------------------------------|--------------------------------|
A|1---1---1---1-------1---3-------|3---3---3---3-------3---3-------|
E|--------------------------------|--------------------------------|
 
G|--------------------------------|--------------------------------|
D|3---3---3---3-------3---3-------|1---1---1---1-------1---1-------|
A|--------------------------------|--------------------------------|
E|--------------------------------|--------------------------------|
 
G|--------------------------------|--------------------------------|
D|--------------------------------|--------------------------------|
A|1---1---1---1-------1---1-------|--------------------------------|
E|--------------------------------|3---3---3---3-------3---3-------|
 
G|--------------------------------|--------------------------------|
D|3---3---3---3-------3---3-------|--------------------------------|
A|--------------------------------|--------------------------------|
E|--------------------------------|1---1---1---1-------1---1-------|
 
G|--------------------------------|--------------------------------|
D|--------------------------------|--------------------------------|
A|--------------------------------|--------------------------------|
E|3---3---3---3-------3---3-------|3---3---3---3-------3---3-------|
 
G|--------------------------------|--------------------------------|
D|--------------------------------|0---0---0---0-------0---0-------|
A|3---3---3---3-------3---3-------|--------------------------------|
E|--------------------------------|--------------------------------|
 
                                                            
G|--------------------------------|--------------------------------|
D|--------------------------------|--------------------------------|
A|--------------------------------|--------------------------0-----|
E|1-----------------------1-------|1-------------------2-----------|
 
G|--------------------------------|--------------------------------|
D|--------------------------------|--------------------------------|
A|1-------------------1-----1-----|3-------------------3-----0-----|
E|--------------------------------|--------------------------------|
 
G|--------------------------------|--------------------------------|
D|--------------------------------|--------------------------------|
A|--------------------------------|0---------------------0---------|
E|1-------------------------------|--------------------------1-----|
 
G|--------------------------------|--------------------------------|
D|--------------------------------|--------------------------------|
A|1---------------1-----1-----1---|3---------------------3-----3---|
E|--------------------------------|--------------------------------|
 
G|--------------------------------|--------------------------------|
D|--------------------3-----3-----|0-------------------------------|
A|--------------------------------|--------------------------3-----|
E|1-------------------------------|--------------------------------|
 
G|--------------------------------|--------------------------------|
D|--------------------------------|--------------------------------|
A|--------------------------0-----|3-------------------3-----3-----|
E|3-------------------3-----------|--------------------------------|
 
G|--------------------------------|--------------------------------|
D|--------------------3-----3-----|0-------------------0-----0-----|
A|--------------------------------|--------------------------------|
E|1-------------------------------|--------------------------------|
 
G|--------------------------------|--------------------------------|
D|--------------------0-----0-----|--------------------------------|
A|--------------------------------|3-------------------------------|
E|1-------------------------------|--------------------------------|
 
G|--------------------------------|--------------------------------|
D|--------------------------------|--------------------------------|
A|--------------------------------|--------------------------------|
E|1-------------------1-----1-----|4-------------------4-----1-----|
 
G|--------------------------------|--------------------------------|
D|--------------------------------|--------------------------------|
A|1---------------1-----1-----1---|3-------------------3-----3-----|
E|--------------------------------|--------------------------------|
 
[Outro]                                                             
G|--------------------------------|--------------------------------|
D|--------------------------------|--------------------------------|
A|--------------------------------|0-------------------0-----0-----|
E|1-------------------1-----1-----|--------------------------------|
 
G|--------------------------------|--------------------------------|
D|--------------------------------|--------------------------------|
A|--------------------------0-----|3-------------------3-----3-----|
E|3-------------------3-----------|--------------------------------|
 
G|--------------------------------|--------------------------------|
D|--------------------3-----3-----|0-------------------0-----0-----|
A|--------------------------------|--------------------------------|
E|1-------------------------------|--------------------------------|
 
G|--------------------------------|--------------------------------|
D|--------------------0-----0-----|--------------------3-----3-----|
A|--------------------------------|3-------------------------------|
E|1-------------------------------|--------------------------------|
 
G|--------------------------------|--------------------------------|
D|3-------------------3-----0-----|--------------------------------|
A|--------------------------------|1-------------------1-----1-----|
E|--------------------------------|--------------------------------|
 
G|--------------------------------|
D|3---------------3---------3-----|
A|--------------------------------|
E|--------------------------------|

            
            
Suggest correction
Creating personal tab
Creating personal tab
You can edit any tab online and save it as your Personal.

You can edit, replace or remove any tab part or add personal notes – all changes will be seen only by you.

Personal tabs can be accessed anytime from any device, even offline.
Learn more »
Give kudos to tab author, rate the tab!
1 2 3 4 5
comments
print report bad tab
guest
You may want to rate the tab now too:
select rating
Wanna post a correction for this tab? Suggest correction