Oops, an error
Loading. Please wait.

Una Lagrima En El Suelo Acoustic tab

43 views 9 this week
no commentswrite comment
1 2 3 4 5
3 more votes to show rating
add to favorites
×
Save as Personal and add changes to this tab that will be seen only by you. Learn more ›
×
You can save this tab as Personal to edit and correct it or add notes. All changes will be seen only by you. Learn more »
launch autoscroll
font size
0
reset
how to read this tab
guitar tuner
edit
Autoscroll
slow
fast
+/-
esc
set tempo
stop
una lagrima en el suelo  *version acustica grabada en zafra badajoz*


barricada


TRANSCRIBED BY RUDY GUZMAN


guzman_84@hotmail.com




tune 2 steps down the first and sixth string (e & E)

bajar 2 tonos en la primera y sexta cuerda *Re*

                                               
d:-0--0--0-0-0--0--0--0--0-0-0--0--0--0-0--0-0-|
B:-0--0--0-0-0--0--0--0--0-0-0--0--0--0-0--0-0-|
G:-0--0--0-0-0--0--0--0--0-0-0--0--0--0-0--0-0-|
D:-5--5--5-5-5--5--2--2--2-2-2--5--5--5-5--7-7-|
A:-5--5--5-5-5--5--2--2--2-2-2--5--5--5-5--7-7-|
D:-5--5--5-5-5--4--2--2--2-2-2--4--5--5-5--7-7-|


d:-0--0--0-0--2-4--0--0-0-0-0--0--0-|
B:-3--3--3-3--3-3--3--3-3-3-3--0--0-|
G:-2--2--2-2--2-2--2--2-2-2-2--4--2-|
D:-0--0--0-0--0-0--0--0-0-0-0--4--2-|
A:-----------------------------2--0-|
D:----------------------------------|

d:-0--0--0-0--2-4--0--0-0-0-0--0--0-|
B:-3--3--3-3--3-3--3--0-0-0-0--0--0-|
G:-2--2--2-2--2-2--2--4-4-4-4--2--2-|
D:-0--0--0-0--0-0--0--4-4-4-4--2--2-|
A:--------------------2-2-2-2--0--0-|
D:----------------------------------|

  verse
d:-0--0-0-0-0-0--0-0---2--2-2-2-2--4-4-|
B:-8--8-8-8-8-8--7-7---3--3-3-3-3--3-3-|
G:-7--7-7-7-7-7--7-7---2--2-2-2-2--2-2-|
D:-0--0-0-0-0-0--0-0---0--0-0-0-0--0-0-|
A:-------------------------------------|
D:-------------------------------------|

d:-0--0-0-0-0-0--0-0--0--0-0-0-0-0--0-0-|
B:-0--0-0-0-0-0--0-0--0--0-0-0-0-0--0-0-|
G:-4--4-4-4-4-4--2-2--0--0-0-0-0-0--2-2-|
D:-4--4-4-4-4-4--2-2--5--5-5-5-5-5--2-2-|
A:-2--2-2-2-2-2--0-0--5--5-5-5-5-5--0-0-|
D:--------------------5--5-5-5-5-5------|

d:-0--0-0-0-0-0--0-0--0--0-0-0-0-0--0-0-|
B:-0--0-0-0-0-0--0-0--0--0-0-0-0-0--3-3-|
G:-4--4-4-4-4-4--2-2--0--0-0-0-0-0--2-2-|
D:-4--4-4-4-4-4--2-2--5--5-5-5-5-5--0-0-|
A:-2--2-2-2-2-2--0-0--5--5-5-5-5-5------|
D:--------------------5--5-5-5-5-5------|

d:-0--0-0-0-0--0--0-0-0-0-0--0--0-0-0-0-0--0--0-0-0-0--0-|
B:-0--0-0-0-0--2--2-2-2-2-2--3--3-3-3-3-3--0--0-0-0-0--0-|
G:-0--0-0-0-0--0--0-0-0-0-0--0--0-0-0-0-0--0--0-0-0-0--0-|
D:-2--2-2-2-2--2--2-2-2-2-2--2--2-2-2-2-2--5--5-5-5-5--5-|
A:-2--2-2-2-2--0--0-0-0-0-0--3--3-3-3-3-3--5--5-5-5-5--5-|
D:-2--2-2-2-2------------------------------5--5-5-5-5--4-|

d:-0--0-0-0-0--0--0-0-0-0-0--0--0-0-0-0-0--0--0-0-0-0--0-|
B:-0--0-0-0-0--2--2-2-2-2-2--3--3-3-3-3-3--0--0-0-0-0--0-|
G:-0--0-0-0-0--0--0-0-0-0-0--0--0-0-0-0-0--0--0-0-0-0--0-|
D:-2--2-2-2-2--2--2-2-2-2-2--2--2-2-2-2-2--5--5-5-5-5--5-|
A:-2--2-2-2-2--0--0-0-0-0-0--3--3-3-3-3-3--5--5-5-5-5--5-|
D:-2--2-2-2-2------------------------------5--5-5-5-5--4-|


d:-0--0-0-0-0--0--0-0-0--0-0-0-|
B:-0--0-0-0-0--0--0-0-0--0-0-0-|
G:-0--0-0-0-0--0--0-0-0--0-0-0-|
D:-2--2-2-2-2--5--5-5-5--7-7-7-|
A:-2--2-2-2-2--5--5-5-5--7-7-7-|
D:-2--2-2-2-2--4--5-5-5--7-7-7-|


d:-0--0-0-0-0-0--0-0---2--2-2-2-2--4-4-|
B:-8--8-8-8-8-8--7-7---3--3-3-3-3--3-3-|
G:-7--7-7-7-7-7--7-7---2--2-2-2-2--2-2-|
D:-0--0-0-0-0-0--0-0---0--0-0-0-0--0-0-|
A:-------------------------------------|
D:-------------------------------------|


d:-0--0-0-0-0-0--0-0--0--0-0-0-0-0--0-0-|
B:-0--0-0-0-0-0--0-0--0--0-0-0-0-0--0-0-|
G:-4--4-4-4-4-4--2-2--0--0-0-0-0-0--2-2-|
D:-4--4-4-4-4-4--2-2--5--5-5-5-5-5--2-2-|
A:-2--2-2-2-2-2--0-0--5--5-5-5-5-5--0-0-|
D:--------------------5--5-5-5-5-5------|

d:-0--0-0-0-0-0--0-0--0--0-0-0-0-0--0-0-|
B:-0--0-0-0-0-0--0-0--0--0-0-0-0-0--3-3-|
G:-4--4-4-4-4-4--2-2--0--0-0-0-0-0--2-2-|
D:-4--4-4-4-4-4--2-2--5--5-5-5-5-5--0-0-|
A:-2--2-2-2-2-2--0-0--5--5-5-5-5-5------|
D:--------------------5--5-5-5-5-5------|

d:-0--0-0-0-0--0--0-0-0-0-0--0--0-0-0-0-0--0--0-0-0-0--0-|
B:-0--0-0-0-0--2--2-2-2-2-2--3--3-3-3-3-3--0--0-0-0-0--0-|
G:-0--0-0-0-0--0--0-0-0-0-0--0--0-0-0-0-0--0--0-0-0-0--0-|
D:-2--2-2-2-2--2--2-2-2-2-2--2--2-2-2-2-2--5--5-5-5-5--5-|
A:-2--2-2-2-2--0--0-0-0-0-0--3--3-3-3-3-3--5--5-5-5-5--5-|
D:-2--2-2-2-2------------------------------5--5-5-5-5--4-|

d:-0--0-0-0-0--0--0-0-0-0-0--0--0-0-0-0-0--0--0-0-0-0--0-|
B:-0--0-0-0-0--2--2-2-2-2-2--3--3-3-3-3-3--0--0-0-0-0--0-|
G:-0--0-0-0-0--0--0-0-0-0-0--0--0-0-0-0-0--0--0-0-0-0--0-|
D:-2--2-2-2-2--2--2-2-2-2-2--2--2-2-2-2-2--5--5-5-5-5--5-|
A:-2--2-2-2-2--0--0-0-0-0-0--3--3-3-3-3-3--5--5-5-5-5--5-|
D:-2--2-2-2-2------------------------------5--5-5-5-5--4-|


d:-0--0-0-0-0--0--0-0-0--0-0-0-|
B:-0--0-0-0-0--0--0-0-0--0-0-0-|
G:-0--0-0-0-0--0--0-0-0--0-0-0-|
D:-2--2-2-2-2--5--5-5-5--7-7-7-|
A:-2--2-2-2-2--5--5-5-5--7-7-7-|
D:-2--2-2-2-2--4--5-5-5--7-7-7-|

d:-0--0--0-0--2-4--0--0-0-0-0--0--0-|
B:-3--3--3-3--3-3--3--3-3-3-3--0--0-|
G:-2--2--2-2--2-2--2--2-2-2-2--4--2-|
D:-0--0--0-0--0-0--0--0-0-0-0--4--2-|
A:-----------------------------2--0-|
D:----------------------------------|

d:-0--0--0-0--2-4--0--0-0-0-0--0--0-|
B:-3--3--3-3--3-3--3--0-0-0-0--0--0-|
G:-2--2--2-2--2-2--2--4-4-4-4--2--2-|
D:-0--0--0-0--0-0--0--4-4-4-4--2--2-|
A:--------------------2-2-2-2--0--0-|
D:----------------------------------|


d:-0--0-0-0-0-0--0-0---2--2-2-2-2--4-4-|
B:-8--8-8-8-8-8--7-7---3--3-3-3-3--3-3-|
G:-7--7-7-7-7-7--7-7---2--2-2-2-2--2-2-|
D:-0--0-0-0-0-0--0-0---0--0-0-0-0--0-0-|
A:-------------------------------------|
D:-------------------------------------|

d:-0--0-0-0-0-0--0-0--0--0-0-0-0-0--0-0-|
B:-0--0-0-0-0-0--0-0--0--0-0-0-0-0--0-0-|
G:-4--4-4-4-4-4--2-2--0--0-0-0-0-0--2-2-|
D:-4--4-4-4-4-4--2-2--5--5-5-5-5-5--2-2-|
A:-2--2-2-2-2-2--0-0--5--5-5-5-5-5--0-0-|
D:--------------------5--5-5-5-5-5------|

d:-0--0-0-0-0-0--0-0--0--0-0-0-0-0--0-0-|
B:-0--0-0-0-0-0--0-0--0--0-0-0-0-0--3-3-|
G:-4--4-4-4-4-4--2-2--0--0-0-0-0-0--2-2-|
D:-4--4-4-4-4-4--2-2--5--5-5-5-5-5--0-0-|
A:-2--2-2-2-2-2--0-0--5--5-5-5-5-5------|
D:--------------------5--5-5-5-5-5------|

                                                  *repeat*
d:-0--0-0-0-0--0--0-0-0-0-0--0--0-0-0-0-0--0--0-0-0-0--0-|
B:-0--0-0-0-0--2--2-2-2-2-2--3--3-3-3-3-3--0--0-0-0-0--0-|
G:-0--0-0-0-0--0--0-0-0-0-0--0--0-0-0-0-0--0--0-0-0-0--0-|
D:-2--2-2-2-2--2--2-2-2-2-2--2--2-2-2-2-2--5--5-5-5-5--5-|
A:-2--2-2-2-2--0--0-0-0-0-0--3--3-3-3-3-3--5--5-5-5-5--5-|
D:-2--2-2-2-2------------------------------5--5-5-5-5--4-|


d:-0--0-0-0-0--0--0-0-0--0-0-0-|
B:-0--0-0-0-0--0--0-0-0--0-0-0-|
G:-0--0-0-0-0--0--0-0-0--0-0-0-|
D:-2--2-2-2-2--5--5-5-5--7-7-7-|
A:-2--2-2-2-2--5--5-5-5--7-7-7-|
D:-2--2-2-2-2--4--5-5-5--7-7-7-|

d:-0----------------------------------------------------------|
B:-3----------------------------------------------------------|
G:-2----------------------------------------------------------|
D:-0----------------------------------------------------------|
A:------------------------------------------------------------|
D:------------------------------------------------------------|




hillo son mex

25/08/16
Suggest correction
Creating personal tab
Creating personal tab
You can edit any tab online and save it as your Personal.

You can edit, replace or remove any tab part or add personal notes – all changes will be seen only by you.

Personal tabs can be accessed anytime from any device, even offline.
Learn more »
Give kudos to tab author, rate the tab!
1 2 3 4 5
comments
print report bad tab
guest
You may want to rate the tab now too:
select rating
Wanna post a correction for this tab? Suggest correction