Oops, an error
Loading. Please wait.

Here I Come bass

1,949 views 24 this week
no commentswrite comment
1 2 3 4 5
x 3
add to favorites
×
Save as Personal and add changes to this tab that will be seen only by you. Learn more ›
×
You can save this tab as Personal to edit and correct it or add notes. All changes will be seen only by you. Learn more »
launch autoscroll
font size
0
reset
guitar tuner
edit
Autoscroll
slow
fast
+/-
esc
set tempo
stop
Difficulty
intermediate
-------------------------------------------------------------------------------
                             Here i come - Barrington Levy
-------------------------------------------------------------------------------
Tabbed by: Esty

Tuning:EADG

Notes:Leave comments/corrections in the box. Don't forget to rate.
      Look at part 3 and 5 carefully.

Intro:
G|---------------------------------------------------------------------------|
D|---------------------------------------------------------------------------|
A|----7----------------------------------------------------------------------| X1
E|--7------------------------------------------------------------------------|

Part 1:
G|---------------------------------------------------------------------------|
D|----10-9----10-9-----------------------------------------------------------|
A|--7-------7-------7------8-7---5-7-8-7-------------------------------------| X2
E|----------------------5-------5--------5-----------------------------------|

Part 2:
G|---------------------------------------------------------------------------|
D|---------------------------------------------------------------------------|
A|--7--7--7-7-7--------------------------------------------------------------| X10
E|----------------5--5--5-5-5------------------------------------------------|

Part 3:
G|---------------------------------------------------------------------------|
D|----10-9----10-9-----------------------------------------------------------|
A|--7-------7-------7------8-7---5-7-8-7-------------------------------------| X2
E|----------------------5-------5--------5-----------------------------------|

G|---------------------------------------------------------------------------|
D|----10-9----10-9-----------------------------------------------------------|
A|--7-------7-------7------8-7-----8-7---------------------------------------| X1
E|----------------------5-------5------5-------------------------------------|

G|---------------------------------------------------------------------------|
D|----10-9----10-9-----------------------------------------------------------|
A|--7-------7-------7------8-7---5-7-8-7-------------------------------------| X1
E|----------------------5-------5--------5-----------------------------------|

G|---------------------------------------------------------------------------|
D|----10-9----10-9-----------------------------------------------------------|
A|--7-------7-------7------8-7-----8-7---------------------------------------| X1
E|----------------------5-------5------5-------------------------------------|

Part 4:
G|---------------------------------------------------------------------------|
D|---------------------------------------------------------------------------|
A|--7--7--7-7-7--------------------------------------------------------------| X8
E|----------------5--5--5-5-5------------------------------------------------|

Part 5:
G|---------------------------------------------------------------------------|
D|----10-9----10-9-----------------------------------------------------------|
A|--7-------7-------7------8-7-----8-7---------------------------------------| X1
E|----------------------5-------5------5-------------------------------------|

G|---------------------------------------------------------------------------|
D|----10-9----10-9-----------------------------------------------------------|
A|--7-------7-------7------8-7---5-7-8-7-------------------------------------| X1
E|----------------------5-------5--------5-----------------------------------|

G|---------------------------------------------------------------------------|
D|----10-9----10-9-----------------------------------------------------------|
A|--7-------7-------7------8-7-----8-7---------------------------------------| X1
E|----------------------5-------5------5-------------------------------------|

G|---------------------------------------------------------------------------|
D|----10-9----10-9-----------------------------------------------------------|
A|--7-------7-------7------8-7---5-7-8-7-------------------------------------| X1
E|----------------------5-------5--------5-----------------------------------|

Part 6: (play Intel song ends)
G|---------------------------------------------------------------------------|
D|---------------------------------------------------------------------------|
A|--7--7--7-7-7--------------------------------------------------------------| 
E|----------------5--5--5-5-5------------------------------------------------|





| /  slide up
| \  slide down
| h  hammer-on
| p  pull-off
| ~  vibrato
| +  harmonic
| x  Mute note
===============================================================================
Suggest correction
Creating personal tab
Creating personal tab
You can edit any tab online and save it as your Personal.

You can edit, replace or remove any tab part or add personal notes – all changes will be seen only by you.

Personal tabs can be accessed anytime from any device, even offline.
Learn more »
Give kudos to tab author, rate the tab!
1 2 3 4 5
comments
print report bad tab
guest
Wanna post a correction for this tab? Suggest correction